  0
SECTION
  2
HEADER
  9
$ACADVER
  1
AC1015
  9
$ACADMAINTVER
 70
     6
  9
$DWGCODEPAGE
  3
ANSI_1252
  9
$INSBASE
 10
0.0
 20
0.0
 30
0.0
  9
$EXTMIN
 10
140.674101
 20
59.03392268487344
 30
-0.000000010000097
  9
$EXTMAX
 10
2218.691596
 20
1640.489168603859
 30
0.0000000100000713
  9
$LIMMIN
 10
-0.5
 20
-0.5
  9
$LIMMAX
 10
5.0
 20
5.0
  9
$ORTHOMODE
 70
     0
  9
$REGENMODE
 70
     1
  9
$FILLMODE
 70
     1
  9
$QTEXTMODE
 70
     0
  9
$MIRRTEXT
 70
     1
  9
$LTSCALE
 40
1.0
  9
$ATTMODE
 70
     1
  9
$TEXTSIZE
 40
0.2
  9
$TRACEWID
 40
0.05
  9
$TEXTSTYLE
  7
Standard
  9
$CLAYER
  8
0
  9
$CELTYPE
  6
BYLAYER
  9
$CECOLOR
 62
   256
  9
$CELTSCALE
 40
1.0
  9
$DISPSILH
 70
     0
  9
$DIMSCALE
 40
1.0
  9
$DIMASZ
 40
0.18
  9
$DIMEXO
 40
0.0625
  9
$DIMDLI
 40
0.38
  9
$DIMRND
 40
0.0
  9
$DIMDLE
 40
0.0
  9
$DIMEXE
 40
0.18
  9
$DIMTP
 40
0.0
  9
$DIMTM
 40
0.0
  9
$DIMTXT
 40
0.18
  9
$DIMCEN
 40
0.09
  9
$DIMTSZ
 40
0.0
  9
$DIMTOL
 70
     0
  9
$DIMLIM
 70
     0
  9
$DIMTIH
 70
     1
  9
$DIMTOH
 70
     1
  9
$DIMSE1
 70
     0
  9
$DIMSE2
 70
     0
  9
$DIMTAD
 70
     0
  9
$DIMZIN
 70
     0
  9
$DIMBLK
  1

  9
$DIMASO
 70
     1
  9
$DIMSHO
 70
     1
  9
$DIMPOST
  1

  9
$DIMAPOST
  1

  9
$DIMALT
 70
     0
  9
$DIMALTD
 70
     2
  9
$DIMALTF
 40
25.4
  9
$DIMLFAC
 40
1.0
  9
$DIMTOFL
 70
     0
  9
$DIMTVP
 40
0.0
  9
$DIMTIX
 70
     0
  9
$DIMSOXD
 70
     0
  9
$DIMSAH
 70
     0
  9
$DIMBLK1
  1

  9
$DIMBLK2
  1

  9
$DIMSTYLE
  2
Standard
  9
$DIMCLRD
 70
     0
  9
$DIMCLRE
 70
     0
  9
$DIMCLRT
 70
     0
  9
$DIMTFAC
 40
1.0
  9
$DIMGAP
 40
0.09
  9
$DIMJUST
 70
     0
  9
$DIMSD1
 70
     0
  9
$DIMSD2
 70
     0
  9
$DIMTOLJ
 70
     1
  9
$DIMTZIN
 70
     0
  9
$DIMALTZ
 70
     0
  9
$DIMALTTZ
 70
     0
  9
$DIMUPT
 70
     0
  9
$DIMDEC
 70
     4
  9
$DIMTDEC
 70
     4
  9
$DIMALTU
 70
     2
  9
$DIMALTTD
 70
     2
  9
$DIMTXSTY
  7
Standard
  9
$DIMAUNIT
 70
     0
  9
$DIMADEC
 70
     0
  9
$DIMALTRND
 40
0.0
  9
$DIMAZIN
 70
     0
  9
$DIMDSEP
 70
    46
  9
$DIMATFIT
 70
     3
  9
$DIMFRAC
 70
     0
  9
$DIMLDRBLK
  1

  9
$DIMLUNIT
 70
     2
  9
$DIMLWD
 70
    -2
  9
$DIMLWE
 70
    -2
  9
$DIMTMOVE
 70
     0
  9
$LUNITS
 70
     2
  9
$LUPREC
 70
     4
  9
$SKETCHINC
 40
0.1
  9
$FILLETRAD
 40
0.5
  9
$AUNITS
 70
     0
  9
$AUPREC
 70
     0
  9
$MENU
  1
.
  9
$ELEVATION
 40
0.0
  9
$PELEVATION
 40
0.0
  9
$THICKNESS
 40
0.0
  9
$LIMCHECK
 70
     0
  9
$CHAMFERA
 40
0.5
  9
$CHAMFERB
 40
0.5
  9
$CHAMFERC
 40
1.0
  9
$CHAMFERD
 40
0.0
  9
$SKPOLY
 70
     0
  9
$TDCREATE
 40
2455881.780477314
  9
$TDUCREATE
 40
2455881.738810648
  9
$TDUPDATE
 40
2455881.780979166
  9
$TDUUPDATE
 40
2455881.739312500
  9
$TDINDWG
 40
0.0002671181
  9
$TDUSRTIMER
 40
0.0002669444
  9
$USRTIMER
 70
     1
  9
$ANGBASE
 50
0.0
  9
$ANGDIR
 70
     0
  9
$PDMODE
 70
     0
  9
$PDSIZE
 40
0.0
  9
$PLINEWID
 40
0.0
  9
$SPLFRAME
 70
     0
  9
$SPLINETYPE
 70
     6
  9
$SPLINESEGS
 70
     8
  9
$HANDSEED
  5
130
  9
$SURFTAB1
 70
     6
  9
$SURFTAB2
 70
     6
  9
$SURFTYPE
 70
     6
  9
$SURFU
 70
     6
  9
$SURFV
 70
     6
  9
$UCSBASE
  2

  9
$UCSNAME
  2

  9
$UCSORG
 10
0.0
 20
0.0
 30
0.0
  9
$UCSXDIR
 10
1.0
 20
0.0
 30
0.0
  9
$UCSYDIR
 10
0.0
 20
1.0
 30
0.0
  9
$UCSORTHOREF
  2

  9
$UCSORTHOVIEW
 70
     0
  9
$UCSORGTOP
 10
0.0
 20
0.0
 30
0.0
  9
$UCSORGBOTTOM
 10
0.0
 20
0.0
 30
0.0
  9
$UCSORGLEFT
 10
0.0
 20
0.0
 30
0.0
  9
$UCSORGRIGHT
 10
0.0
 20
0.0
 30
0.0
  9
$UCSORGFRONT
 10
0.0
 20
0.0
 30
0.0
  9
$UCSORGBACK
 10
0.0
 20
0.0
 30
0.0
  9
$PUCSBASE
  2

  9
$PUCSNAME
  2

  9
$PUCSORG
 10
0.0
 20
0.0
 30
0.0
  9
$PUCSXDIR
 10
1.0
 20
0.0
 30
0.0
  9
$PUCSYDIR
 10
0.0
 20
1.0
 30
0.0
  9
$PUCSORTHOREF
  2

  9
$PUCSORTHOVIEW
 70
     0
  9
$PUCSORGTOP
 10
0.0
 20
0.0
 30
0.0
  9
$PUCSORGBOTTOM
 10
0.0
 20
0.0
 30
0.0
  9
$PUCSORGLEFT
 10
0.0
 20
0.0
 30
0.0
  9
$PUCSORGRIGHT
 10
0.0
 20
0.0
 30
0.0
  9
$PUCSORGFRONT
 10
0.0
 20
0.0
 30
0.0
  9
$PUCSORGBACK
 10
0.0
 20
0.0
 30
0.0
  9
$USERI1
 70
     0
  9
$USERI2
 70
     0
  9
$USERI3
 70
     0
  9
$USERI4
 70
     0
  9
$USERI5
 70
     0
  9
$USERR1
 40
0.0
  9
$USERR2
 40
0.0
  9
$USERR3
 40
0.0
  9
$USERR4
 40
0.0
  9
$USERR5
 40
0.0
  9
$WORLDVIEW
 70
     1
  9
$SHADEDGE
 70
     3
  9
$SHADEDIF
 70
    70
  9
$TILEMODE
 70
     1
  9
$MAXACTVP
 70
    64
  9
$PINSBASE
 10
0.0
 20
0.0
 30
0.0
  9
$PLIMCHECK
 70
     0
  9
$PEXTMIN
 10
-0.5
 20
-0.5
 30
-0.5
  9
$PEXTMAX
 10
5.0
 20
5.0
 30
5.0
  9
$PLIMMIN
 10
-0.5
 20
-0.5
  9
$PLIMMAX
 10
5.0
 20
5.0
  9
$UNITMODE
 70
     0
  9
$VISRETAIN
 70
     1
  9
$PLINEGEN
 70
     0
  9
$PSLTSCALE
 70
     1
  9
$TREEDEPTH
 70
  3020
  9
$CMLSTYLE
  2
Standard
  9
$CMLJUST
 70
     0
  9
$CMLSCALE
 40
1.0
  9
$PROXYGRAPHICS
 70
     1
  9
$MEASUREMENT
 70
     1
  9
$CELWEIGHT
370
    -1
  9
$ENDCAPS
280
     0
  9
$JOINSTYLE
280
     0
  9
$LWDISPLAY
290
     0
  9
$INSUNITS
 70
     4
  9
$HYPERLINKBASE
  1

  9
$STYLESHEET
  1

  9
$XEDIT
290
     1
  9
$CEPSNTYPE
380
     0
  9
$PSTYLEMODE
290
     1
  9
$FINGERPRINTGUID
  2
{D919F077-66FA-405B-A909-E348C29B326E}
  9
$VERSIONGUID
  2
{25A23D16-57A0-49A2-8F0F-512054B07208}
  9
$EXTNAMES
290
     1
  9
$PSVPSCALE
 40
0.0
  9
$OLESTARTUP
290
     0
  0
ENDSEC
  0
SECTION
  2
CLASSES
  0
CLASS
  1
ACDBDICTIONARYWDFLT
  2
AcDbDictionaryWithDefault
  3
AutoCAD 2000
 90
        0
280
     0
281
     0
  0
CLASS
  1
VISUALSTYLE
  2
AcDbVisualStyle
  3
ObjectDBX Classes
 90
     4095
280
     0
281
     0
  0
CLASS
  1
ACDBPLACEHOLDER
  2
AcDbPlaceHolder
  3
AutoCAD 2000
 90
        0
280
     0
281
     0
  0
CLASS
  1
LAYOUT
  2
AcDbLayout
  3
AutoCAD 2000
 90
        0
280
     0
281
     0
  0
ENDSEC
  0
SECTION
  2
TABLES
  0
TABLE
  2
VPORT
  5
8
330
0
100
AcDbSymbolTable
 70
    18
  0
VPORT
  5
29
330
8
100
AcDbSymbolTableRecord
100
AcDbViewportTableRecord
  2
DUMMY
 70
     0
 10
0.0
 20
0.0
 11
1.0
 21
1.0
 12
10.429907
 22
4.5
 13
0.0
 23
0.0
 14
0.5
 24
0.5
 15
0.5
 25
0.5
 16
0.0
 26
0.0
 36
1.0
 17
0.0
 27
0.0
 37
0.0
 40
9.0
 41
1.972972999999999
 42
50.0
 43
0.0
 44
0.0
 50
0.0
 51
0.0
 71
     0
 72
   100
 73
     1
 74
     3
 75
     0
 76
     0
 77
     0
 78
     0
281
     0
 65
     1
110
0.0
120
0.0
130
0.0
111
1.0
121
0.0
131
0.0
112
0.0
122
1.0
132
0.0
 79
     0
146
0.0
  0
VPORT
  5
11A
330
8
100
AcDbSymbolTableRecord
100
AcDbViewportTableRecord
  2
L1
 70
     0
 10
0.0
 20
0.0
 11
1.0
 21
1.0
 12
1179.682849
 22
847.1915089999999
 13
0.0
 23
0.0
 14
0.5
 24
0.5
 15
0.5
 25
0.5
 16
0.0
 26
0.0
 36
1.0
 17
0.0
 27
0.0
 37
0.0
 40
254.0
 41
0.069908
 42
50.0
 43
4110.892654
 44
-4110.892654
 50
0.0
 51
0.0
 71
     0
 72
   100
 73
     1
 74
     3
 75
     0
 76
     0
 77
     0
 78
     0
281
     0
 65
     1
110
0.0
120
0.0
130
0.0
111
1.0
121
0.0
131
0.0
112
0.0
122
1.0
132
0.0
 79
     0
146
0.0
  0
VPORT
  5
11B
330
8
100
AcDbSymbolTableRecord
100
AcDbViewportTableRecord
  2
L2
 70
     0
 10
0.0
 20
0.0
 11
0.5
 21
1.0
 12
0.0
 22
0.0
 13
0.0
 23
0.0
 14
0.5
 24
0.5
 15
0.5
 25
0.5
 16
0.0
 26
-1.0
 36
0.0
 17
0.0
 27
0.0
 37
0.0
 40
1319.822715
 41
0.013454
 42
50.0
 43
672.020833
 44
-672.020833
 50
0.0
 51
0.0
 71
     0
 72
   100
 73
     1
 74
     3
 75
     0
 76
     0
 77
     0
 78
     0
281
     0
 65
     1
110
0.0
120
0.0
130
0.0
111
1.0
121
0.0
131
0.0
112
0.0
122
1.0
132
0.0
 79
     0
146
0.0
  0
VPORT
  5
11C
330
8
100
AcDbSymbolTableRecord
100
AcDbViewportTableRecord
  2
L2
 70
     0
 10
0.5
 20
0.0
 11
1.0
 21
1.0
 12
0.0
 22
0.0
 13
0.0
 23
0.0
 14
0.5
 24
0.5
 15
0.5
 25
0.5
 16
1.0
 26
0.0
 36
0.0
 17
0.0
 27
0.0
 37
0.0
 40
1319.822715
 41
0.013454
 42
50.0
 43
672.020833
 44
-672.020833
 50
0.0
 51
0.0
 71
     0
 72
   100
 73
     1
 74
     3
 75
     0
 76
     0
 77
     0
 78
     0
281
     0
 65
     1
110
0.0
120
0.0
130
0.0
111
1.0
121
0.0
131
0.0
112
0.0
122
1.0
132
0.0
 79
     0
146
0.0
  0
VPORT
  5
11D
330
8
100
AcDbSymbolTableRecord
100
AcDbViewportTableRecord
  2
L3
 70
     0
 10
0.0
 20
0.5
 11
1.0
 21
1.0
 12
1179.682849
 22
847.1915089999999
 13
0.0
 23
0.0
 14
0.5
 24
0.5
 15
0.5
 25
0.5
 16
0.0
 26
0.0
 36
1.0
 17
0.0
 27
0.0
 37
0.0
 40
254.0
 41
0.069908
 42
50.0
 43
4110.892654
 44
-4110.892654
 50
0.0
 51
0.0
 71
     0
 72
   100
 73
     1
 74
     3
 75
     0
 76
     0
 77
     0
 78
     0
281
     0
 65
     1
110
0.0
120
0.0
130
0.0
111
1.0
121
0.0
131
0.0
112
0.0
122
1.0
132
0.0
 79
     0
146
0.0
  0
VPORT
  5
11E
330
8
100
AcDbSymbolTableRecord
100
AcDbViewportTableRecord
  2
L3
 70
     0
 10
0.0
 20
0.0
 11
1.0
 21
0.5
 12
0.0
 22
0.0
 13
0.0
 23
0.0
 14
0.5
 24
0.5
 15
0.5
 25
0.5
 16
0.0
 26
-1.0
 36
0.0
 17
0.0
 27
0.0
 37
0.0
 40
1319.822715
 41
0.013454
 42
50.0
 43
672.020833
 44
-672.020833
 50
0.0
 51
0.0
 71
     0
 72
   100
 73
     1
 74
     3
 75
     0
 76
     0
 77
     0
 78
     0
281
     0
 65
     1
110
0.0
120
0.0
130
0.0
111
1.0
121
0.0
131
0.0
112
0.0
122
1.0
132
0.0
 79
     0
146
0.0
  0
VPORT
  5
11F
330
8
100
AcDbSymbolTableRecord
100
AcDbViewportTableRecord
  2
L4
 70
     0
 10
0.0
 20
0.5
 11
0.5
 21
1.0
 12
1179.682849
 22
847.1915089999999
 13
0.0
 23
0.0
 14
0.5
 24
0.5
 15
0.5
 25
0.5
 16
0.0
 26
0.0
 36
1.0
 17
0.0
 27
0.0
 37
0.0
 40
254.0
 41
0.069908
 42
50.0
 43
4110.892654
 44
-4110.892654
 50
0.0
 51
0.0
 71
     0
 72
   100
 73
     1
 74
     3
 75
     0
 76
     0
 77
     0
 78
     0
281
     0
 65
     1
110
0.0
120
0.0
130
0.0
111
1.0
121
0.0
131
0.0
112
0.0
122
1.0
132
0.0
 79
     0
146
0.0
  0
VPORT
  5
120
330
8
100
AcDbSymbolTableRecord
100
AcDbViewportTableRecord
  2
L4
 70
     0
 10
0.0
 20
0.0
 11
0.5
 21
0.5
 12
0.0
 22
0.0
 13
0.0
 23
0.0
 14
0.5
 24
0.5
 15
0.5
 25
0.5
 16
0.0
 26
-1.0
 36
0.0
 17
0.0
 27
0.0
 37
0.0
 40
1319.822715
 41
0.013454
 42
50.0
 43
672.020833
 44
-672.020833
 50
0.0
 51
0.0
 71
     0
 72
   100
 73
     1
 74
     3
 75
     0
 76
     0
 77
     0
 78
     0
281
     0
 65
     1
110
0.0
120
0.0
130
0.0
111
1.0
121
0.0
131
0.0
112
0.0
122
1.0
132
0.0
 79
     0
146
0.0
  0
VPORT
  5
121
330
8
100
AcDbSymbolTableRecord
100
AcDbViewportTableRecord
  2
L4
 70
     0
 10
0.5
 20
0.0
 11
1.0
 21
0.5
 12
0.0
 22
0.0
 13
0.0
 23
0.0
 14
0.5
 24
0.5
 15
0.5
 25
0.5
 16
1.0
 26
0.0
 36
0.0
 17
0.0
 27
0.0
 37
0.0
 40
1319.822715
 41
0.013454
 42
50.0
 43
672.020833
 44
-672.020833
 50
0.0
 51
0.0
 71
     0
 72
   100
 73
     1
 74
     3
 75
     0
 76
     0
 77
     0
 78
     0
281
     0
 65
     1
110
0.0
120
0.0
130
0.0
111
1.0
121
0.0
131
0.0
112
0.0
122
1.0
132
0.0
 79
     0
146
0.0
  0
VPORT
  5
122
330
8
100
AcDbSymbolTableRecord
100
AcDbViewportTableRecord
  2
L4
 70
     0
 10
0.5
 20
0.5
 11
1.0
 21
1.0
 12
0.0
 22
0.0
 13
0.0
 23
0.0
 14
0.5
 24
0.5
 15
0.5
 25
0.5
 16
0.5773502691896259
 26
-0.5773502691896259
 36
0.5773502691896259
 17
0.0
 27
0.0
 37
0.0
 40
1285.020866
 41
0.013818
 42
50.0
 43
667.141407
 44
-667.141407
 50
0.0
 51
0.0
 71
     0
 72
   100
 73
     1
 74
     3
 75
     0
 76
     0
 77
     0
 78
     0
281
     0
 65
     1
110
0.0
120
0.0
130
0.0
111
1.0
121
0.0
131
0.0
112
0.0
122
1.0
132
0.0
 79
     0
146
0.0
  0
VPORT
  5
123
330
8
100
AcDbSymbolTableRecord
100
AcDbViewportTableRecord
  2
L6
 70
     0
 10
0.0
 20
0.5
 11
0.333333
 21
1.0
 12
0.0
 22
0.0
 13
0.0
 23
0.0
 14
0.5
 24
0.5
 15
0.5
 25
0.5
 16
0.7188730927569435
 26
-0.5850486126764432
 36
0.3754192287502549
 17
0.0
 27
0.0
 37
0.0
 40
1357.434192
 41
0.013081
 42
50.0
 43
701.839477
 44
-701.839477
 50
0.0
 51
0.0
 71
     0
 72
   100
 73
     1
 74
     3
 75
     0
 76
     0
 77
     0
 78
     0
281
     0
 65
     1
110
0.0
120
0.0
130
0.0
111
1.0
121
0.0
131
0.0
112
0.0
122
1.0
132
0.0
 79
     0
146
0.0
  0
VPORT
  5
124
330
8
100
AcDbSymbolTableRecord
100
AcDbViewportTableRecord
  2
L6
 70
     0
 10
0.0
 20
0.0
 11
0.333333
 21
0.5
 12
0.0
 22
0.0
 13
0.0
 23
0.0
 14
0.5
 24
0.5
 15
0.5
 25
0.5
 16
-1.0
 26
0.0
 36
0.0
 17
0.0
 27
0.0
 37
0.0
 40
1319.822715
 41
0.013454
 42
50.0
 43
672.020833
 44
-672.020833
 50
0.0
 51
0.0
 71
     0
 72
   100
 73
     1
 74
     3
 75
     0
 76
     0
 77
     0
 78
     0
281
     0
 65
     1
110
0.0
120
0.0
130
0.0
111
1.0
121
0.0
131
0.0
112
0.0
122
1.0
132
0.0
 79
     0
146
0.0
  0
VPORT
  5
125
330
8
100
AcDbSymbolTableRecord
100
AcDbViewportTableRecord
  2
L6
 70
     0
 10
0.333333
 20
0.5
 11
0.666667
 21
1.0
 12
1179.682849
 22
847.1915089999999
 13
0.0
 23
0.0
 14
0.5
 24
0.5
 15
0.5
 25
0.5
 16
0.0
 26
0.0
 36
1.0
 17
0.0
 27
0.0
 37
0.0
 40
254.0
 41
0.069908
 42
50.0
 43
4110.892654
 44
-4110.892654
 50
0.0
 51
0.0
 71
     0
 72
   100
 73
     1
 74
     3
 75
     0
 76
     0
 77
     0
 78
     0
281
     0
 65
     1
110
0.0
120
0.0
130
0.0
111
1.0
121
0.0
131
0.0
112
0.0
122
1.0
132
0.0
 79
     0
146
0.0
  0
VPORT
  5
126
330
8
100
AcDbSymbolTableRecord
100
AcDbViewportTableRecord
  2
L6
 70
     0
 10
0.333333
 20
0.0
 11
0.666667
 21
0.5
 12
0.0
 22
0.0
 13
0.0
 23
0.0
 14
0.5
 24
0.5
 15
0.5
 25
0.5
 16
0.0
 26
-1.0
 36
0.0
 17
0.0
 27
0.0
 37
0.0
 40
1319.822715
 41
0.013454
 42
50.0
 43
672.020833
 44
-672.020833
 50
0.0
 51
0.0
 71
     0
 72
   100
 73
     1
 74
     3
 75
     0
 76
     0
 77
     0
 78
     0
281
     0
 65
     1
110
0.0
120
0.0
130
0.0
111
1.0
121
0.0
131
0.0
112
0.0
122
1.0
132
0.0
 79
     0
146
0.0
  0
VPORT
  5
127
330
8
100
AcDbSymbolTableRecord
100
AcDbViewportTableRecord
  2
L6
 70
     0
 10
0.666667
 20
0.5
 11
1.0
 21
1.0
 12
0.0
 22
0.0
 13
0.0
 23
0.0
 14
0.5
 24
0.5
 15
0.5
 25
0.5
 16
0.5773502691896259
 26
-0.5773502691896259
 36
0.5773502691896259
 17
0.0
 27
0.0
 37
0.0
 40
1285.020866
 41
0.013818
 42
50.0
 43
667.141407
 44
-667.141407
 50
0.0
 51
0.0
 71
     0
 72
   100
 73
     1
 74
     3
 75
     0
 76
     0
 77
     0
 78
     0
281
     0
 65
     1
110
0.0
120
0.0
130
0.0
111
1.0
121
0.0
131
0.0
112
0.0
122
1.0
132
0.0
 79
     0
146
0.0
  0
VPORT
  5
128
330
8
100
AcDbSymbolTableRecord
100
AcDbViewportTableRecord
  2
L6
 70
     0
 10
0.666667
 20
0.0
 11
1.0
 21
0.5
 12
0.0
 22
0.0
 13
0.0
 23
0.0
 14
0.5
 24
0.5
 15
0.5
 25
0.5
 16
1.0
 26
0.0
 36
0.0
 17
0.0
 27
0.0
 37
0.0
 40
1319.822715
 41
0.013454
 42
50.0
 43
672.020833
 44
-672.020833
 50
0.0
 51
0.0
 71
     0
 72
   100
 73
     1
 74
     3
 75
     0
 76
     0
 77
     0
 78
     0
281
     0
 65
     1
110
0.0
120
0.0
130
0.0
111
1.0
121
0.0
131
0.0
112
0.0
122
1.0
132
0.0
 79
     0
146
0.0
  0
VPORT
  5
12F
330
8
100
AcDbSymbolTableRecord
100
AcDbViewportTableRecord
  2
*Active
 70
     0
 10
0.0
 20
0.0
 11
1.0
 21
1.0
 12
1109.095798
 22
819.9945843019298
 13
0.0
 23
0.0
 14
0.5
 24
0.5
 15
0.5
 25
0.5
 16
0.0
 26
0.0
 36
1.0
 17
0.0
 27
0.0
 37
0.0
 40
1650.995200119736
 41
1.920651068158697
 42
50.0
 43
4110.892654
 44
-4110.892654
 50
0.0
 51
0.0
 71
     0
 72
   100
 73
     1
 74
     3
 75
     0
 76
     0
 77
     0
 78
     0
281
     0
 65
     1
110
0.0
120
0.0
130
0.0
111
1.0
121
0.0
131
0.0
112
0.0
122
1.0
132
0.0
 79
     0
146
0.0
  0
ENDTAB
  0
TABLE
  2
LTYPE
  5
5
330
0
100
AcDbSymbolTable
 70
     7
  0
LTYPE
  5
14
330
5
100
AcDbSymbolTableRecord
100
AcDbLinetypeTableRecord
  2
BYBLOCK
 70
     0
  3

 72
    65
 73
     0
 40
0.0
  0
LTYPE
  5
15
330
5
100
AcDbSymbolTableRecord
100
AcDbLinetypeTableRecord
  2
BYLAYER
 70
     0
  3

 72
    65
 73
     0
 40
0.0
  0
LTYPE
  5
16
330
5
100
AcDbSymbolTableRecord
100
AcDbLinetypeTableRecord
  2
CONTINUOUS
 70
     0
  3
Solid line
 72
    65
 73
     0
 40
0.0
  0
LTYPE
  5
3B
330
5
100
AcDbSymbolTableRecord
100
AcDbLinetypeTableRecord
  2
DASHED
 70
     0
  3
__ __ __ __ __ __ __ __ __
 72
    65
 73
     2
 40
25.72
 49
12.86
 74
     4
 75
     0
340
0
 46
0.0
 50
0.0
 44
0.0
 45
0.0
 49
-12.86
 74
     4
 75
     0
340
0
 46
0.0
 50
0.0
 44
0.0
 45
0.0
  0
LTYPE
  5
3C
330
5
100
AcDbSymbolTableRecord
100
AcDbLinetypeTableRecord
  2
HIDDEN
 70
     0
  3
_ _ _ _ _ _ _ _ _ _ _ _ _ _ _
 72
    65
 73
     2
 40
0.5
 49
0.25
 74
     4
 75
     0
340
0
 46
0.0
 50
0.0
 44
0.0
 45
0.0
 49
-0.25
 74
     4
 75
     0
340
0
 46
0.0
 50
0.0
 44
0.0
 45
0.0
  0
LTYPE
  5
3D
330
5
100
AcDbSymbolTableRecord
100
AcDbLinetypeTableRecord
  2
PHANTOM
 70
     0
  3
____ _ _ ____ _ _ _____ _ _ ____
 72
    65
 73
     6
 40
50.5
 49
18.0
 74
     4
 75
     0
340
0
 46
0.0
 50
0.0
 44
0.0
 45
0.0
 49
-6.5
 74
     4
 75
     0
340
0
 46
0.0
 50
0.0
 44
0.0
 45
0.0
 49
6.5
 74
     4
 75
     0
340
0
 46
0.0
 50
0.0
 44
0.0
 45
0.0
 49
-6.5
 74
     4
 75
     0
340
0
 46
0.0
 50
0.0
 44
0.0
 45
0.0
 49
6.5
 74
     4
 75
     0
340
0
 46
0.0
 50
0.0
 44
0.0
 45
0.0
 49
-6.5
 74
     4
 75
     0
340
0
 46
0.0
 50
0.0
 44
0.0
 45
0.0
  0
LTYPE
  5
3E
330
5
100
AcDbSymbolTableRecord
100
AcDbLinetypeTableRecord
  2
CENTER
 70
     0
  3
____ _ ____ _ ____ _ ____
 72
    65
 73
     4
 40
47.4
 49
22.0
 74
     4
 75
     0
340
0
 46
0.0
 50
0.0
 44
0.0
 45
0.0
 49
-8.5
 74
     4
 75
     0
340
0
 46
0.0
 50
0.0
 44
0.0
 45
0.0
 49
8.5
 74
     4
 75
     0
340
0
 46
0.0
 50
0.0
 44
0.0
 45
0.0
 49
-8.5
 74
     4
 75
     0
340
0
 46
0.0
 50
0.0
 44
0.0
 45
0.0
  0
LTYPE
  5
3F
330
5
100
AcDbSymbolTableRecord
100
AcDbLinetypeTableRecord
  2
DOT
 70
     0
  3
.........................
 72
    65
 73
     2
 40
10.0
 49
0.0
 74
     4
 75
     0
340
0
 46
0.0
 50
0.0
 44
0.0
 45
0.0
 49
-10.0
 74
     4
 75
     0
340
0
 46
0.0
 50
0.0
 44
0.0
 45
0.0
  0
LTYPE
  5
40
330
5
100
AcDbSymbolTableRecord
100
AcDbLinetypeTableRecord
  2
DASHDOT
 70
     0
  3
_._._._._._._._._._._._._._._._.
 72
    65
 73
     4
 40
70.0
 49
31.0
 74
     4
 75
     0
340
0
 46
0.0
 50
0.0
 44
0.0
 45
0.0
 49
-13.0
 74
     4
 75
     0
340
0
 46
0.0
 50
0.0
 44
0.0
 45
0.0
 49
13.0
 74
     4
 75
     0
340
0
 46
0.0
 50
0.0
 44
0.0
 45
0.0
 49
-13.0
 74
     4
 75
     0
340
0
 46
0.0
 50
0.0
 44
0.0
 45
0.0
  0
ENDTAB
  0
TABLE
  2
LAYER
  5
2
330
0
100
AcDbSymbolTable
 70
     2
  0
LAYER
  5
10
330
2
100
AcDbSymbolTableRecord
100
AcDbLayerTableRecord
  2
0
 70
     0
 62
     7
  6
CONTINUOUS
370
    -3
390
F
  0
LAYER
  5
42
330
2
100
AcDbSymbolTableRecord
100
AcDbLayerTableRecord
  2
1
 70
     0
 62
     7
  6
CONTINUOUS
370
    -3
390
F
  0
ENDTAB
  0
TABLE
  2
STYLE
  5
3
330
0
100
AcDbSymbolTable
 70
     1
  0
STYLE
  5
11
330
3
100
AcDbSymbolTableRecord
100
AcDbTextStyleTableRecord
  2
Standard
 70
     0
 40
0.0
 41
1.0
 50
0.0
 71
     0
 42
0.2
  3
txt
  4

  0
ENDTAB
  0
TABLE
  2
VIEW
  5
6
330
0
100
AcDbSymbolTable
 70
     8
  0
VIEW
  5
111
330
6
100
AcDbSymbolTableRecord
100
AcDbViewTableRecord
  2
TOP
 70
     0
 40
254.0
 10
1179.682849
 20
847.1915089999999
 41
254.0
 11
0.0
 21
0.0
 31
1.0
 12
0.0
 22
0.0
 32
0.0
 42
50.0
 43
4110.892654
 44
-4110.892654
 50
0.0
 71
     0
281
     0
 72
     0
  0
VIEW
  5
112
330
6
100
AcDbSymbolTableRecord
100
AcDbViewTableRecord
  2
FRONT
 70
     0
 40
1319.822715
 10
0.0
 20
0.0
 41
254.0
 11
0.0
 21
-1.0
 31
0.0
 12
0.0
 22
0.0
 32
0.0
 42
50.0
 43
672.020833
 44
-672.020833
 50
0.0
 71
     0
281
     0
 72
     0
  0
VIEW
  5
113
330
6
100
AcDbSymbolTableRecord
100
AcDbViewTableRecord
  2
RIGHT
 70
     0
 40
1319.822715
 10
0.0
 20
0.0
 41
254.0
 11
1.0
 21
0.0
 31
0.0
 12
0.0
 22
0.0
 32
0.0
 42
50.0
 43
672.020833
 44
-672.020833
 50
0.0
 71
     0
281
     0
 72
     0
  0
VIEW
  5
114
330
6
100
AcDbSymbolTableRecord
100
AcDbViewTableRecord
  2
BACK
 70
     0
 40
1319.822715
 10
0.0
 20
0.0
 41
254.0
 11
0.0
 21
1.0
 31
0.0
 12
0.0
 22
0.0
 32
0.0
 42
50.0
 43
672.020833
 44
-672.020833
 50
0.0
 71
     0
281
     0
 72
     0
  0
VIEW
  5
115
330
6
100
AcDbSymbolTableRecord
100
AcDbViewTableRecord
  2
BOTTOM
 70
     0
 40
254.0
 10
0.0
 20
0.0
 41
254.0
 11
0.0
 21
0.0
 31
-1.0
 12
0.0
 22
0.0
 32
0.0
 42
50.0
 43
659.911358
 44
-659.911358
 50
180.0
 71
     0
281
     0
 72
     0
  0
VIEW
  5
116
330
6
100
AcDbSymbolTableRecord
100
AcDbViewTableRecord
  2
LEFT
 70
     0
 40
1319.822715
 10
0.0
 20
0.0
 41
254.0
 11
-1.0
 21
0.0
 31
0.0
 12
0.0
 22
0.0
 32
0.0
 42
50.0
 43
672.020833
 44
-672.020833
 50
0.0
 71
     0
281
     0
 72
     0
  0
VIEW
  5
117
330
6
100
AcDbSymbolTableRecord
100
AcDbViewTableRecord
  2
TFR-ISO
 70
     0
 40
1285.020866
 10
0.0
 20
0.0
 41
359.210245
 11
0.5773502691896259
 21
-0.5773502691896259
 31
0.5773502691896259
 12
0.0
 22
0.0
 32
0.0
 42
50.0
 43
667.141407
 44
-667.141407
 50
0.0
 71
     0
281
     0
 72
     0
  0
VIEW
  5
118
330
6
100
AcDbSymbolTableRecord
100
AcDbViewTableRecord
  2
TFR-TRI
 70
     0
 40
1357.434192
 10
0.0
 20
0.0
 41
357.33321
 11
0.7188730927569435
 21
-0.5850486126764432
 31
0.3754192287502549
 12
0.0
 22
0.0
 32
0.0
 42
50.0
 43
701.839477
 44
-701.839477
 50
0.0
 71
     0
281
     0
 72
     0
  0
ENDTAB
  0
TABLE
  2
UCS
  5
7
330
0
100
AcDbSymbolTable
 70
     0
  0
ENDTAB
  0
TABLE
  2
APPID
  5
9
330
0
100
AcDbSymbolTable
 70
     1
  0
APPID
  5
12
330
9
100
AcDbSymbolTableRecord
100
AcDbRegAppTableRecord
  2
ACAD
 70
     0
  0
ENDTAB
  0
TABLE
  2
DIMSTYLE
  5
A
330
0
100
AcDbSymbolTable
 70
     1
100
AcDbDimStyleTable
 71
     0
  0
DIMSTYLE
105
27
330
A
100
AcDbSymbolTableRecord
100
AcDbDimStyleTableRecord
  2
Standard
 70
     0
340
11
  0
ENDTAB
  0
TABLE
  2
BLOCK_RECORD
  5
1
330
0
100
AcDbSymbolTable
 70
     1
  0
BLOCK_RECORD
  5
1F
330
1
100
AcDbSymbolTableRecord
100
AcDbBlockTableRecord
  2
*Model_Space
340
22
  0
BLOCK_RECORD
  5
1B
330
1
100
AcDbSymbolTableRecord
100
AcDbBlockTableRecord
  2
*Paper_Space
340
1E
  0
BLOCK_RECORD
  5
23
330
1
100
AcDbSymbolTableRecord
100
AcDbBlockTableRecord
  2
*Paper_Space0
340
26
  0
ENDTAB
  0
ENDSEC
  0
SECTION
  2
BLOCKS
  0
BLOCK
  5
20
330
1F
100
AcDbEntity
  8
0
100
AcDbBlockBegin
  2
*Model_Space
 70
     0
 10
0.0
 20
0.0
 30
0.0
  3
*Model_Space
  1

  0
ENDBLK
  5
21
330
1F
100
AcDbEntity
  8
0
100
AcDbBlockEnd
  0
BLOCK
  5
1C
330
1B
100
AcDbEntity
 67
     1
  8
0
100
AcDbBlockBegin
  2
*Paper_Space
 70
     0
 10
0.0
 20
0.0
 30
0.0
  3
*Paper_Space
  1

  0
ENDBLK
  5
1D
330
1B
100
AcDbEntity
 67
     1
  8
0
100
AcDbBlockEnd
  0
BLOCK
  5
24
330
23
100
AcDbEntity
  8
0
100
AcDbBlockBegin
  2
*Paper_Space0
 70
     0
 10
0.0
 20
0.0
 30
0.0
  3
*Paper_Space0
  1

  0
ENDBLK
  5
25
330
23
100
AcDbEntity
  8
0
100
AcDbBlockEnd
  0
ENDSEC
  0
SECTION
  2
ENTITIES
  0
LINE
  5
41
330
1F
100
AcDbEntity
  8
1
  6
Continuous
 62
     7
100
AcDbLine
 10
140.674101
 20
814.6378440000001
 30
0.0
 11
140.674101
 21
94.63784399999999
 31
0.0
  0
LINE
  5
43
330
1F
100
AcDbEntity
  8
1
  6
Continuous
 62
     7
100
AcDbLine
 10
1310.674101
 20
844.637844
 30
0.0
 11
170.674101
 21
844.637844
 31
0.0
  0
LINE
  5
44
330
1F
100
AcDbEntity
  8
1
  6
Continuous
 62
     7
100
AcDbLine
 10
1340.674101
 20
94.63784399999999
 30
0.0
 11
1340.674101
 21
814.6378440000001
 31
0.0
  0
LINE
  5
45
330
1F
100
AcDbEntity
  8
1
  6
Continuous
 62
     7
100
AcDbLine
 10
170.674101
 20
64.637844
 30
0.0
 11
1310.674101
 21
64.637844
 31
0.0
  0
LINE
  5
46
330
1F
100
AcDbEntity
  8
1
  6
Continuous
 62
     7
100
AcDbLine
 10
1010.674100999999
 20
1593.593869
 30
0.0
 11
1023.674100999999
 21
1593.593869
 31
0.0
  0
LINE
  5
47
330
1F
100
AcDbEntity
  8
1
  6
Continuous
 62
     7
100
AcDbLine
 10
142.4400579999999
 20
912.347257
 30
0.0
 11
142.4400579999999
 21
905.317707
 31
0.0
  0
LINE
  5
48
330
1F
100
AcDbEntity
  8
1
  6
Continuous
 62
     7
100
AcDbLine
 10
1075.168852999999
 20
1593.593869
 30
0.0
 11
1175.658854
 21
1593.593869
 31
0.0
  0
LINE
  5
49
330
1F
100
AcDbEntity
  8
1
  6
Continuous
 62
     7
100
AcDbLine
 10
470.674101
 20
1593.593869
 30
0.0
 11
1010.674100999999
 21
1593.593869
 31
0.0
  0
LINE
  5
4A
330
1F
100
AcDbEntity
  8
1
  6
Continuous
 62
     7
100
AcDbLine
 10
153.8897479999999
 20
930.2626979999999
 30
0.0
 11
153.767806
 21
925.2512989999999
 31
0.0
  0
LINE
  5
4B
330
1F
100
AcDbEntity
  8
1
  6
Continuous
 62
     7
100
AcDbLine
 10
182.711132
 20
922.004747
 30
0.0
 11
183.7025009999999
 21
926.918623
 31
0.0
  0
LINE
  5
4C
330
1F
100
AcDbEntity
  8
1
  6
Continuous
 62
     7
100
AcDbLine
 10
1030.674101
 20
1593.593869
 30
0.0
 11
1075.168852999999
 21
1593.593869
 31
0.0
  0
LINE
  5
4D
330
1F
100
AcDbEntity
  8
1
  6
Continuous
 62
     7
100
AcDbLine
 10
406.17935
 20
1593.593869
 30
0.0
 11
450.6741009999999
 21
1593.593869
 31
0.0
  0
LINE
  5
4E
330
1F
100
AcDbEntity
  8
1
  6
Continuous
 62
     7
100
AcDbLine
 10
192.440058
 20
905.317707
 30
0.0
 11
192.440058
 21
912.347257
 31
0.0
  0
LINE
  5
4F
330
1F
100
AcDbEntity
  8
1
  6
Continuous
 62
     7
100
AcDbLine
 10
183.703001
 20
926.9218160000001
 30
0.0
 11
252.590664
 21
1541.062016
 31
0.0
  0
LINE
  5
50
330
1F
100
AcDbEntity
  8
1
  6
Continuous
 62
     7
100
AcDbLine
 10
222.777631
 20
1544.406123
 30
0.0
 11
153.8899679999999
 21
930.265922
 31
0.0
  0
LINE
  5
51
330
1F
100
AcDbEntity
  8
1
  6
Continuous
 62
     7
100
AcDbLine
 10
305.689349
 20
1593.593869
 30
0.0
 11
406.17935
 21
1593.593869
 31
0.0
  0
LINE
  5
52
330
1F
100
AcDbEntity
  8
1
  6
Continuous
 62
     7
100
AcDbLine
 10
1288.908144999999
 20
912.347257
 30
0.0
 11
1288.908144999999
 21
905.317707
 31
0.0
  0
LINE
  5
53
330
1F
100
AcDbEntity
  8
1
  6
Continuous
 62
     7
100
AcDbLine
 10
1338.908144999999
 20
905.317707
 30
0.0
 11
1338.908144999999
 21
912.347257
 31
0.0
  0
LINE
  5
54
330
1F
100
AcDbEntity
  8
1
  6
Continuous
 62
     7
100
AcDbLine
 10
457.6741009999999
 20
1593.593869
 30
0.0
 11
470.674101
 21
1593.593869
 31
0.0
  0
LINE
  5
55
330
1F
100
AcDbEntity
  8
1
  6
Continuous
 62
     7
100
AcDbLine
 10
1297.645702
 20
926.918623
 30
0.0
 11
1298.637071
 21
922.004747
 31
0.0
  0
LINE
  5
56
330
1F
100
AcDbEntity
  8
1
  6
Continuous
 62
     7
100
AcDbLine
 10
1327.580397
 20
925.2512989999999
 30
0.0
 11
1327.458455
 21
930.2626979999999
 31
0.0
  0
LINE
  5
57
330
1F
100
AcDbEntity
  8
1
  6
Continuous
 62
     7
100
AcDbLine
 10
1327.458235
 20
930.265922
 30
0.0
 11
1258.570572
 21
1544.406123
 31
0.0
  0
LINE
  5
58
330
1F
100
AcDbEntity
  8
1
  6
Continuous
 62
     7
100
AcDbLine
 10
1228.757539
 20
1541.062016
 30
0.0
 11
1297.645201999999
 21
926.9218160000001
 31
0.0
  0
LINE
  5
59
330
1F
100
AcDbEntity
  8
1
  6
Continuous
 62
     7
100
AcDbLine
 10
142.4400579999999
 20
905.317707
 30
0.0
 11
192.440058
 21
905.317707
 31
0.0
  0
LINE
  5
5A
330
1F
100
AcDbEntity
  8
1
  6
Continuous
 62
     7
100
AcDbLine
 10
1288.908144999999
 20
912.347257
 30
0.0
 11
1338.908144999999
 21
912.347257
 31
0.0
  0
LINE
  5
5B
330
1F
100
AcDbEntity
  8
1
  6
Continuous
 62
     7
100
AcDbLine
 10
1340.674101
 20
1635.593869
 30
0.0
 11
1310.674101
 21
1635.593869
 31
0.0
  0
LINE
  5
5C
330
1F
100
AcDbEntity
  8
1
  6
Continuous
 62
     7
100
AcDbLine
 10
140.674101
 20
1635.593869
 30
0.0
 11
170.674101
 21
1635.593869
 31
0.0
  0
LINE
  5
5D
330
1F
100
AcDbEntity
  8
1
  6
Continuous
 62
     7
100
AcDbLine
 10
170.674101
 20
1635.593869
 30
0.0
 11
1310.674101
 21
1635.593869
 31
0.0
  0
LINE
  5
5E
330
1F
100
AcDbEntity
  8
1
  6
Continuous
 62
     7
100
AcDbLine
 10
192.440058
 20
912.347257
 30
0.0
 11
142.4400579999999
 21
912.347257
 31
0.0
  0
LINE
  5
5F
330
1F
100
AcDbEntity
  8
1
  6
Continuous
 62
     7
100
AcDbLine
 10
1288.908144999999
 20
905.317707
 30
0.0
 11
1338.908144999999
 21
905.317707
 31
0.0
  0
LINE
  5
60
330
1F
100
AcDbEntity
  8
1
  6
Continuous
 62
     7
100
AcDbLine
 10
457.6741009999999
 20
1595.32737
 30
0.0
 11
457.6741009999999
 21
1593.593869
 31
0.0
  0
LINE
  5
61
330
1F
100
AcDbEntity
  8
1
  6
Continuous
 62
     7
100
AcDbLine
 10
457.6741009999999
 20
1623.593869
 30
0.0
 11
457.6741009999999
 21
1621.860367999999
 31
0.0
  0
LINE
  5
62
330
1F
100
AcDbEntity
  8
1
  6
Continuous
 62
     7
100
AcDbLine
 10
1327.458455
 20
930.2626679999999
 30
0.0
 11
1327.458235
 21
930.265922
 31
0.0
  0
LINE
  5
63
330
1F
100
AcDbEntity
  8
1
  6
Continuous
 62
     7
100
AcDbLine
 10
140.674101
 20
1623.593869
 30
0.0
 11
140.674101
 21
1635.593869
 31
0.0
  0
LINE
  5
64
330
1F
100
AcDbEntity
  8
1
  6
Continuous
 62
     1
100
AcDbLine
 10
170.674101
 20
1635.593869
 30
0.0
 11
170.674101
 21
1623.593869
 31
0.0
  0
LINE
  5
65
330
1F
100
AcDbEntity
  8
1
  6
Continuous
 62
     7
100
AcDbLine
 10
1340.674101
 20
1635.593869
 30
0.0
 11
1340.674101
 21
1623.593869
 31
0.0
  0
LINE
  5
66
330
1F
100
AcDbEntity
  8
1
  6
Continuous
 62
     1
100
AcDbLine
 10
1310.674101
 20
1623.593869
 30
0.0
 11
1310.674101
 21
1635.593869
 31
0.0
  0
LINE
  5
67
330
1F
100
AcDbEntity
  8
1
  6
Continuous
 62
     7
100
AcDbLine
 10
1340.674101
 20
1623.593869
 30
0.0
 11
1310.674101
 21
1623.593869
 31
0.0
  0
LINE
  5
68
330
1F
100
AcDbEntity
  8
1
  6
Continuous
 62
     7
100
AcDbLine
 10
170.674101
 20
1623.593869
 30
0.0
 11
140.674101
 21
1623.593869
 31
0.0
  0
LINE
  5
69
330
1F
100
AcDbEntity
  8
1
  6
Continuous
 62
     7
100
AcDbLine
 10
170.674101
 20
1623.593869
 30
0.0
 11
1310.674101
 21
1623.593869
 31
0.0
  0
LINE
  5
6A
330
1F
100
AcDbEntity
  8
1
  6
Continuous
 62
     7
100
AcDbLine
 10
1023.674100999999
 20
1593.593869
 30
0.0
 11
1023.674100999999
 21
1595.32737
 31
0.0
  0
LINE
  5
6B
330
1F
100
AcDbEntity
  8
1
  6
Continuous
 62
     7
100
AcDbLine
 10
1023.674100999999
 20
1621.860367999999
 30
0.0
 11
1023.674100999999
 21
1623.593869
 31
0.0
  0
LINE
  5
6C
330
1F
100
AcDbEntity
  8
1
  6
Continuous
 62
     7
100
AcDbLine
 10
470.674101
 20
1623.593869
 30
0.0
 11
470.674101
 21
1593.593869
 31
0.0
  0
LINE
  5
6D
330
1F
100
AcDbEntity
  8
1
  6
Continuous
 62
     7
100
AcDbLine
 10
1010.674100999999
 20
1623.593869
 30
0.0
 11
1010.674100999999
 21
1593.593869
 31
0.0
  0
LINE
  5
6E
330
1F
100
AcDbEntity
  8
1
  6
Continuous
 62
     7
100
AcDbLine
 10
162.613332
 20
917.1707920000001
 30
0.0
 11
163.1143309999999
 21
921.63725
 31
0.0
  0
LINE
  5
6F
330
1F
100
AcDbEntity
  8
1
  6
Continuous
 62
     7
100
AcDbLine
 10
172.30764
 20
916.1958380000001
 30
0.0
 11
172.80864
 21
920.6622949999999
 31
0.0
  0
LINE
  5
70
330
1F
100
AcDbEntity
  8
1
  6
Continuous
 62
     7
100
AcDbLine
 10
172.3086399999999
 20
920.784165
 30
0.0
 11
171.8076409999999
 21
916.3177070000001
 31
0.0
  0
LINE
  5
71
330
1F
100
AcDbEntity
  8
1
  6
Continuous
 62
     7
100
AcDbLine
 10
166.3672249999999
 20
917.0489230000001
 30
0.0
 11
166.868224
 21
921.515381
 31
0.0
  0
LINE
  5
72
330
1F
100
AcDbEntity
  8
1
  6
Continuous
 62
     7
100
AcDbLine
 10
165.554751
 20
921.63725
 30
0.0
 11
165.053752
 21
917.1707920000001
 31
0.0
  0
LINE
  5
73
330
1F
100
AcDbEntity
  8
1
  6
Continuous
 62
     7
100
AcDbLine
 10
165.053752
 20
917.1707920000001
 30
0.0
 11
162.613332
 21
917.1707920000001
 31
0.0
  0
LINE
  5
74
330
1F
100
AcDbEntity
  8
1
  6
Continuous
 62
     7
100
AcDbLine
 10
163.1143309999999
 20
921.63725
 30
0.0
 11
165.554751
 21
921.63725
 31
0.0
  0
LINE
  5
75
330
1F
100
AcDbEntity
  8
1
  6
Continuous
 62
     7
100
AcDbLine
 10
166.868224
 20
921.515381
 30
0.0
 11
172.3086399999999
 21
920.784165
 31
0.0
  0
LINE
  5
76
330
1F
100
AcDbEntity
  8
1
  6
Continuous
 62
     7
100
AcDbLine
 10
163.113332
 20
917.0489230000001
 30
0.0
 11
166.293255
 21
916.6215269999998
 31
0.0
  0
LINE
  5
77
330
1F
100
AcDbEntity
  8
1
  6
Continuous
 62
     7
100
AcDbLine
 10
171.8076409999999
 20
916.3177070000001
 30
0.0
 11
166.3672249999999
 21
917.0489230000001
 31
0.0
  0
LINE
  5
78
330
1F
100
AcDbEntity
  8
1
  6
Continuous
 62
     7
100
AcDbLine
 10
1316.294451
 20
917.1707920000001
 30
0.0
 11
1315.793452
 21
921.63725
 31
0.0
  0
LINE
  5
79
330
1F
100
AcDbEntity
  8
1
  6
Continuous
 62
     7
100
AcDbLine
 10
1314.479979
 20
921.515381
 30
0.0
 11
1314.980977999999
 21
917.0489230000001
 31
0.0
  0
LINE
  5
7A
330
1F
100
AcDbEntity
  8
1
  6
Continuous
 62
     7
100
AcDbLine
 10
1309.540562
 20
916.3177070000001
 30
0.0
 11
1309.039563
 21
920.784165
 31
0.0
  0
LINE
  5
7B
330
1F
100
AcDbEntity
  8
1
  6
Continuous
 62
     7
100
AcDbLine
 10
1308.539563
 20
920.6622949999999
 30
0.0
 11
1309.040563
 21
916.1958380000001
 31
0.0
  0
LINE
  5
7C
330
1F
100
AcDbEntity
  8
1
  6
Continuous
 62
     7
100
AcDbLine
 10
1318.233871
 20
921.63725
 30
0.0
 11
1318.734871
 21
917.1707920000001
 31
0.0
  0
LINE
  5
7D
330
1F
100
AcDbEntity
  8
1
  6
Continuous
 62
     7
100
AcDbLine
 10
1318.734871
 20
917.1707920000001
 30
0.0
 11
1316.294451
 21
917.1707920000001
 31
0.0
  0
LINE
  5
7E
330
1F
100
AcDbEntity
  8
1
  6
Continuous
 62
     7
100
AcDbLine
 10
1315.793452
 20
921.63725
 30
0.0
 11
1318.233871
 21
921.63725
 31
0.0
  0
LINE
  5
7F
330
1F
100
AcDbEntity
  8
1
  6
Continuous
 62
     7
100
AcDbLine
 10
1309.039563
 20
920.784165
 30
0.0
 11
1314.479979
 21
921.515381
 31
0.0
  0
LINE
  5
80
330
1F
100
AcDbEntity
  8
1
  6
Continuous
 62
     7
100
AcDbLine
 10
1314.980977999999
 20
917.0489230000001
 30
0.0
 11
1309.540562
 21
916.3177070000001
 31
0.0
  0
LINE
  5
81
330
1F
100
AcDbEntity
  8
1
  6
Continuous
 62
     7
100
AcDbLine
 10
1315.054948
 20
916.6215269999998
 30
0.0
 11
1318.234871
 21
917.0489230000001
 31
0.0
  0
LINE
  5
82
330
1F
100
AcDbEntity
  8
1
  6
Continuous
 62
     7
100
AcDbLine
 10
183.7024989999999
 20
926.9186130000001
 30
0.0
 11
183.703001
 21
926.9218160000001
 31
0.0
  0
LINE
  5
83
330
1F
100
AcDbEntity
  8
1
  6
Continuous
 62
     7
100
AcDbLine
 10
2176.691596
 20
718.948183
 30
0.0
 11
2176.691596
 21
650.432273
 31
0.0
  0
LINE
  5
84
330
1F
100
AcDbEntity
  8
1
  6
Continuous
 62
     7
100
AcDbLine
 10
2176.691596
 20
258.8434139999999
 30
0.0
 11
2176.691596
 21
190.3275049999999
 31
0.0
  0
LINE
  5
85
330
1F
100
AcDbEntity
  8
1
  6
Continuous
 62
     7
100
AcDbLine
 10
1495.444984
 20
850.241764
 30
0.0
 11
1488.415434
 21
850.241764
 31
0.0
  0
LINE
  5
86
330
1F
100
AcDbEntity
  8
1
  6
Continuous
 62
     7
100
AcDbLine
 10
1488.415434
 20
800.241764
 30
0.0
 11
1495.444984
 21
800.241764
 31
0.0
  0
LINE
  5
87
330
1F
100
AcDbEntity
  8
1
  6
Continuous
 62
     7
100
AcDbLine
 10
1512.439778
 20
69.656514
 30
0.0
 11
2126.579979
 21
100.327278
 31
0.0
  0
LINE
  5
88
330
1F
100
AcDbEntity
  8
1
  6
Continuous
 62
     7
100
AcDbLine
 10
2125.083615
 20
130.289936
 30
0.0
 11
1510.943414
 21
99.61917300000001
 31
0.0
  0
LINE
  5
89
330
1F
100
AcDbEntity
  8
1
  6
Continuous
 62
     7
100
AcDbLine
 10
1510.943414
 20
809.656514
 30
0.0
 11
2125.083615
 21
778.9857509999999
 31
0.0
  0
LINE
  5
8A
330
1F
100
AcDbEntity
  8
1
  6
Continuous
 62
     7
100
AcDbLine
 10
2126.579979
 20
808.9484089999999
 30
0.0
 11
1512.439778
 21
839.6191729999999
 31
0.0
  0
LINE
  5
8B
330
1F
100
AcDbEntity
  8
1
  6
Continuous
 62
     7
100
AcDbLine
 10
2176.691596
 20
190.3275049999999
 30
0.0
 11
2176.691596
 21
146.0786249999999
 31
0.0
  0
LINE
  5
8C
330
1F
100
AcDbEntity
  8
1
  6
Continuous
 62
     7
100
AcDbLine
 10
2176.691596
 20
763.200557
 30
0.0
 11
2176.691596
 21
718.948183
 31
0.0
  0
LINE
  5
8D
330
1F
100
AcDbEntity
  8
1
  6
Continuous
 62
     7
100
AcDbLine
 10
2176.691596
 20
650.432273
 30
0.0
 11
2176.691596
 21
258.8434139999999
 31
0.0
  0
LINE
  5
8E
330
1F
100
AcDbEntity
  8
1
  6
Continuous
 62
     7
100
AcDbLine
 10
1495.444984
 20
109.033924
 30
0.0
 11
1488.415434
 21
109.033924
 31
0.0
  0
LINE
  5
8F
330
1F
100
AcDbEntity
  8
1
  6
Continuous
 62
     7
100
AcDbLine
 10
1488.415434
 20
59.033924
 30
0.0
 11
1495.444984
 21
59.033924
 31
0.0
  0
LINE
  5
90
330
1F
100
AcDbEntity
  8
1
  6
Continuous
 62
     7
100
AcDbLine
 10
1510.927102
 20
99.617637
 30
0.0
 11
1505.986666
 21
98.93293900000001
 31
0.0
  0
LINE
  5
91
330
1F
100
AcDbEntity
  8
1
  6
Continuous
 62
     7
100
AcDbLine
 10
1507.439323
 20
69.845476
 30
0.0
 11
1512.423395
 21
69.656418
 31
0.0
  0
LINE
  5
92
330
1F
100
AcDbEntity
  8
1
  6
Continuous
 62
     7
100
AcDbLine
 10
1512.423395
 20
839.6192699999998
 30
0.0
 11
1507.439323
 21
839.4302119999998
 31
0.0
  0
LINE
  5
93
330
1F
100
AcDbEntity
  8
1
  6
Continuous
 62
     7
100
AcDbLine
 10
1505.986666
 20
810.342748
 30
0.0
 11
1510.927102
 21
809.6580499999999
 31
0.0
  0
LINE
  5
94
330
1F
100
AcDbEntity
  8
1
  6
Continuous
 62
     7
100
AcDbLine
 10
2218.691596
 20
814.6378440000001
 30
0.0
 11
2218.691596
 21
94.63784399999999
 31
0.0
  0
LINE
  5
95
330
1F
100
AcDbEntity
  8
1
  6
Continuous
 62
     7
100
AcDbLine
 10
1488.415434
 20
109.033924
 30
0.0
 11
1488.415434
 21
59.033924
 31
0.0
  0
LINE
  5
96
330
1F
100
AcDbEntity
  8
1
  6
Continuous
 62
     7
100
AcDbLine
 10
2218.691596
 20
94.63784399999999
 30
0.0
 11
2218.691596
 21
64.637844
 31
0.0
  0
LINE
  5
97
330
1F
100
AcDbEntity
  8
1
  6
Continuous
 62
     7
100
AcDbLine
 10
2218.691596
 20
844.637844
 30
0.0
 11
2218.691596
 21
814.6378440000001
 31
0.0
  0
LINE
  5
98
330
1F
100
AcDbEntity
  8
1
  6
Continuous
 62
     7
100
AcDbLine
 10
1495.444984
 20
109.033924
 30
0.0
 11
1495.444984
 21
59.033924
 31
0.0
  0
LINE
  5
99
330
1F
100
AcDbEntity
  8
1
  6
Continuous
 62
     7
100
AcDbLine
 10
1488.415434
 20
850.241764
 30
0.0
 11
1488.415434
 21
800.241764
 31
0.0
  0
LINE
  5
9A
330
1F
100
AcDbEntity
  8
1
  6
Continuous
 62
     1
100
AcDbLine
 10
2206.691596
 20
650.432273
 30
0.0
 11
2176.691596
 21
650.432273
 31
0.0
  0
LINE
  5
9B
330
1F
100
AcDbEntity
  8
1
  6
Continuous
 62
     1
100
AcDbLine
 10
2206.691596
 20
258.8434139999999
 30
0.0
 11
2176.691596
 21
258.8434139999999
 31
0.0
  0
LINE
  5
9C
330
1F
100
AcDbEntity
  8
1
  6
Continuous
 62
     7
100
AcDbLine
 10
2206.691596
 20
844.637844
 30
0.0
 11
2218.691596
 21
844.637844
 31
0.0
  0
LINE
  5
9D
330
1F
100
AcDbEntity
  8
1
  6
Continuous
 62
     1
100
AcDbLine
 10
2218.691596
 20
814.6378440000001
 30
0.0
 11
2206.691596
 21
814.6378440000001
 31
0.0
  0
LINE
  5
9E
330
1F
100
AcDbEntity
  8
1
  6
Continuous
 62
     1
100
AcDbLine
 10
2206.691596
 20
94.63784399999999
 30
0.0
 11
2218.691596
 21
94.63784399999999
 31
0.0
  0
LINE
  5
9F
330
1F
100
AcDbEntity
  8
1
  6
Continuous
 62
     7
100
AcDbLine
 10
2218.691596
 20
64.637844
 30
0.0
 11
2206.691596
 21
64.637844
 31
0.0
  0
LINE
  5
A0
330
1F
100
AcDbEntity
  8
1
  6
Continuous
 62
     7
100
AcDbLine
 10
2206.691596
 20
64.637844
 30
0.0
 11
2206.691596
 21
94.63784399999999
 31
0.0
  0
LINE
  5
A1
330
1F
100
AcDbEntity
  8
1
  6
Continuous
 62
     7
100
AcDbLine
 10
2206.691596
 20
814.6378440000001
 30
0.0
 11
2206.691596
 21
94.63784399999999
 31
0.0
  0
LINE
  5
A2
330
1F
100
AcDbEntity
  8
1
  6
Continuous
 62
     7
100
AcDbLine
 10
2206.691596
 20
814.6378440000001
 30
0.0
 11
2206.691596
 21
844.637844
 31
0.0
  0
LINE
  5
A3
330
1F
100
AcDbEntity
  8
1
  6
Continuous
 62
     7
100
AcDbLine
 10
1500.268519999999
 20
829.5881239999999
 30
0.0
 11
1504.734977
 21
829.365065
 31
0.0
  0
LINE
  5
A4
330
1F
100
AcDbEntity
  8
1
  6
Continuous
 62
     7
100
AcDbLine
 10
1504.613108
 20
829.874906
 30
0.0
 11
1500.14665
 21
830.097965
 31
0.0
  0
LINE
  5
A5
330
1F
100
AcDbEntity
  8
1
  6
Continuous
 62
     7
100
AcDbLine
 10
1503.881891999999
 20
820.1443129999999
 30
0.0
 11
1499.415434
 21
820.3673719999999
 31
0.0
  0
LINE
  5
A6
330
1F
100
AcDbEntity
  8
1
  6
Continuous
 62
     7
100
AcDbLine
 10
1500.14665
 20
822.789601
 30
0.0
 11
1504.613108
 21
822.566542
 31
0.0
  0
LINE
  5
A7
330
1F
100
AcDbEntity
  8
1
  6
Continuous
 62
     7
100
AcDbLine
 10
1504.734977
 20
823.8837919999999
 30
0.0
 11
1500.268519999999
 21
824.1068509999999
 31
0.0
  0
LINE
  5
A8
330
1F
100
AcDbEntity
  8
1
  6
Continuous
 62
     7
100
AcDbLine
 10
1500.268519999999
 20
824.1068509999999
 30
0.0
 11
1500.268519999999
 21
829.5881239999999
 31
0.0
  0
LINE
  5
A9
330
1F
100
AcDbEntity
  8
1
  6
Continuous
 62
     7
100
AcDbLine
 10
1504.734977
 20
829.365065
 30
0.0
 11
1504.734977
 21
823.8837919999999
 31
0.0
  0
LINE
  5
AA
330
1F
100
AcDbEntity
  8
1
  6
Continuous
 62
     7
100
AcDbLine
 10
1504.613108
 20
822.566542
 30
0.0
 11
1503.881891999999
 21
820.1443129999999
 31
0.0
  0
LINE
  5
AB
330
1F
100
AcDbEntity
  8
1
  6
Continuous
 62
     7
100
AcDbLine
 10
1500.14665
 20
830.097965
 30
0.0
 11
1499.574450999999
 21
828.202495
 31
0.0
  0
LINE
  5
AC
330
1F
100
AcDbEntity
  8
1
  6
Continuous
 62
     7
100
AcDbLine
 10
1499.415434
 20
820.3673719999999
 30
0.0
 11
1500.14665
 21
822.789601
 31
0.0
  0
LINE
  5
AD
330
1F
100
AcDbEntity
  8
1
  6
Continuous
 62
     7
100
AcDbLine
 10
1500.268519999999
 20
85.16883599999999
 30
0.0
 11
1504.734977
 21
85.39189499999999
 31
0.0
  0
LINE
  5
AE
330
1F
100
AcDbEntity
  8
1
  6
Continuous
 62
     7
100
AcDbLine
 10
1504.613108
 20
86.709145
 30
0.0
 11
1500.14665
 21
86.48608600000001
 31
0.0
  0
LINE
  5
AF
330
1F
100
AcDbEntity
  8
1
  6
Continuous
 62
     7
100
AcDbLine
 10
1499.415434
 20
88.908315
 30
0.0
 11
1503.881891999999
 21
89.13137500000001
 31
0.0
  0
LINE
  5
B0
330
1F
100
AcDbEntity
  8
1
  6
Continuous
 62
     7
100
AcDbLine
 10
1500.14665
 20
79.177722
 30
0.0
 11
1504.613108
 21
79.40078199999999
 31
0.0
  0
LINE
  5
B1
330
1F
100
AcDbEntity
  8
1
  6
Continuous
 62
     7
100
AcDbLine
 10
1504.734977
 20
79.910622
 30
0.0
 11
1500.268519999999
 21
79.68756299999999
 31
0.0
  0
LINE
  5
B2
330
1F
100
AcDbEntity
  8
1
  6
Continuous
 62
     7
100
AcDbLine
 10
1500.268519999999
 20
79.68756299999999
 30
0.0
 11
1500.268519999999
 21
85.16883599999999
 31
0.0
  0
LINE
  5
B3
330
1F
100
AcDbEntity
  8
1
  6
Continuous
 62
     7
100
AcDbLine
 10
1504.734977
 20
85.39189499999999
 30
0.0
 11
1504.734977
 21
79.910622
 31
0.0
  0
LINE
  5
B4
330
1F
100
AcDbEntity
  8
1
  6
Continuous
 62
     7
100
AcDbLine
 10
1503.881891999999
 20
89.13137500000001
 30
0.0
 11
1504.613108
 21
86.709145
 31
0.0
  0
LINE
  5
B5
330
1F
100
AcDbEntity
  8
1
  6
Continuous
 62
     7
100
AcDbLine
 10
1500.14665
 20
86.48608600000001
 30
0.0
 11
1499.415434
 21
88.908315
 31
0.0
  0
LINE
  5
B6
330
1F
100
AcDbEntity
  8
1
  6
Continuous
 62
     7
100
AcDbLine
 10
1499.574450999999
 20
81.073192
 30
0.0
 11
1500.14665
 21
79.177722
 31
0.0
  0
ARC
  5
B7
330
1F
100
AcDbEntity
  8
1
  6
Continuous
 62
     7
100
AcDbCircle
 10
167.4400579999999
 20
825.241764
 30
0.0
 40
25.0
100
AcDbArc
 50
89.999999
 51
181.040623
  0
ARC
  5
B8
330
1F
100
AcDbEntity
  8
1
  6
Continuous
 62
     7
100
AcDbCircle
 10
167.4400579999999
 20
825.241764
 30
0.0
 40
25.0
100
AcDbArc
 50
50.878125
 51
89.999999
  0
ARC
  5
B9
330
1F
100
AcDbEntity
  8
1
  6
Continuous
 62
     7
100
AcDbCircle
 10
1313.908145
 20
84.03392399999999
 30
0.0
 40
25.0
100
AcDbArc
 50
230.883749
 51
1.034999
  0
ARC
  5
BA
330
1F
100
AcDbEntity
  8
1
  6
Continuous
 62
     7
100
AcDbCircle
 10
1310.674101
 20
94.63784399999999
 30
0.0
 40
30.0
100
AcDbArc
 50
270.0
 51
0.0
  0
ARC
  5
BB
330
1F
100
AcDbEntity
  8
1
  6
Continuous
 62
     7
100
AcDbCircle
 10
170.674101
 20
94.63784399999999
 30
0.0
 40
30.0
100
AcDbArc
 50
180.0
 51
270.0
  0
ARC
  5
BC
330
1F
100
AcDbEntity
  8
1
  6
Continuous
 62
     7
100
AcDbCircle
 10
1310.674101
 20
814.6378440000001
 30
0.0
 40
30.0
100
AcDbArc
 50
0.0
 51
90.0
  0
ARC
  5
BD
330
1F
100
AcDbEntity
  8
1
  6
Continuous
 62
     7
100
AcDbCircle
 10
170.674101
 20
814.6378440000001
 30
0.0
 40
30.0
100
AcDbArc
 50
90.0
 51
180.0
  0
ARC
  5
BE
330
1F
100
AcDbEntity
  8
1
  6
Continuous
 62
     7
100
AcDbCircle
 10
167.4400579999999
 20
84.03392399999999
 30
0.0
 40
25.0
100
AcDbArc
 50
178.964999
 51
294.0
  0
ARC
  5
BF
330
1F
100
AcDbEntity
  8
1
  6
Continuous
 62
     7
100
AcDbCircle
 10
167.4400579999999
 20
84.03392399999999
 30
0.0
 40
25.0
100
AcDbArc
 50
294.0
 51
309.116249
  0
ARC
  5
C0
330
1F
100
AcDbEntity
  8
1
  6
Continuous
 62
     7
100
AcDbCircle
 10
1313.908145
 20
825.241764
 30
0.0
 40
25.0
100
AcDbArc
 50
90.00000099999999
 51
114.0
  0
ARC
  5
C1
330
1F
100
AcDbEntity
  8
1
  6
Continuous
 62
     7
100
AcDbCircle
 10
1313.908145
 20
825.241764
 30
0.0
 40
25.0
100
AcDbArc
 50
114.0
 51
129.121876
  0
ARC
  5
C2
330
1F
100
AcDbEntity
  8
1
  6
Continuous
 62
     7
100
AcDbCircle
 10
1313.908145
 20
825.241764
 30
0.0
 40
25.0
100
AcDbArc
 50
358.959375
 51
89.999999
  0
ARC
  5
C3
330
1F
100
AcDbEntity
  8
1
  6
Continuous
 62
     7
100
AcDbCircle
 10
1306.810632
 20
801.917416
 30
0.0
 40
115.0
100
AcDbArc
 50
73.79297700000001
 51
86.46159899999998
  0
ARC
  5
C4
330
1F
100
AcDbEntity
  8
1
  6
Continuous
 62
     7
100
AcDbCircle
 10
1321.005658
 20
801.917416
 30
0.0
 40
115.0
100
AcDbArc
 50
95.97770500000001
 51
106.207023
  0
ARC
  5
C5
330
1F
100
AcDbEntity
  8
1
  6
Continuous
 62
     7
100
AcDbCircle
 10
160.342545
 20
801.917416
 30
0.0
 40
115.0
100
AcDbArc
 50
73.79297700000001
 51
84.022295
  0
ARC
  5
C6
330
1F
100
AcDbEntity
  8
1
  6
Continuous
 62
     7
100
AcDbCircle
 10
174.5375709999999
 20
801.917416
 30
0.0
 40
115.0
100
AcDbArc
 50
93.53840100000001
 51
106.207023
  0
ARC
  5
C7
330
1F
100
AcDbEntity
  8
1
  6
Continuous
 62
     7
100
AcDbCircle
 10
450.6741009999999
 20
1608.593868999999
 30
0.0
 40
15.0
100
AcDbArc
 50
270.0
 51
0.0
  0
ARC
  5
C8
330
1F
100
AcDbEntity
  8
1
  6
Continuous
 62
     7
100
AcDbCircle
 10
450.6741009999999
 20
1608.593868999999
 30
0.0
 40
15.0
100
AcDbArc
 50
0.0
 51
90.0
  0
ARC
  5
C9
330
1F
100
AcDbEntity
  8
1
  6
Continuous
 62
     7
100
AcDbCircle
 10
-1030.674101
 20
1608.593868999999
 30
0.0
 40
15.0
210
0.0
220
0.0
230
-1.0
100
AcDbArc
 50
270.0
 51
0.0
  0
ARC
  5
CA
330
1F
100
AcDbEntity
  8
1
  6
Continuous
 62
     7
100
AcDbCircle
 10
-1030.674101
 20
1608.593868999999
 30
0.0
 40
15.0
210
0.0
220
0.0
230
-1.0
100
AcDbArc
 50
0.0
 51
90.0
  0
ARC
  5
CB
330
1F
100
AcDbEntity
  8
1
  6
Continuous
 62
     7
100
AcDbCircle
 10
1385.015143
 20
76.93641099999999
 30
0.0
 40
115.0
100
AcDbArc
 50
3.538401
 51
16.207023
  0
ARC
  5
CC
330
1F
100
AcDbEntity
  8
1
  6
Continuous
 62
     7
100
AcDbCircle
 10
1385.015143
 20
91.13143599999999
 30
0.0
 40
115.0
100
AcDbArc
 50
343.792977
 51
356.461599
  0
ARC
  5
CD
330
1F
100
AcDbEntity
  8
1
  6
Continuous
 62
     7
100
AcDbCircle
 10
1385.015143
 20
832.3392759999999
 30
0.0
 40
115.0
100
AcDbArc
 50
343.792977
 51
356.461599
  0
ARC
  5
CE
330
1F
100
AcDbEntity
  8
1
  6
Continuous
 62
     7
100
AcDbCircle
 10
1385.015143
 20
818.144251
 30
0.0
 40
115.0
100
AcDbArc
 50
3.538401
 51
16.207023
  0
ELLIPSE
  5
CF
330
1F
100
AcDbEntity
  8
1
  6
Continuous
 62
     1
100
AcDbEllipse
 10
237.684147
 20
1542.73407
 30
0.0
 11
14.90651663117438
 21
-1.672053206247221
 31
0.0
210
0.0
220
0.0
230
0.9999999999999996
 40
0.049569
 41
1.576356349183049
 42
3.141654885619963
  0
ELLIPSE
  5
D0
330
1F
100
AcDbEntity
  8
1
  6
Continuous
 62
     1
100
AcDbEllipse
 10
237.684147
 20
1542.73407
 30
0.0
 11
14.90651663117438
 21
-1.672053206247221
 31
0.0
210
0.0
220
0.0
230
0.9999999999999996
 40
0.049569
 41
0.0
 42
1.576356379656965
  0
ELLIPSE
  5
D1
330
1F
100
AcDbEntity
  8
1
  6
Continuous
 62
     1
100
AcDbEllipse
 10
305.689349
 20
1608.593868999999
 30
0.0
 11
0.0
 21
-15.0
 31
0.0
210
0.0
220
0.0
230
1.0
 40
0.4067370000000001
 41
0.0012762788790146
 42
3.141396347331482
  0
ELLIPSE
  5
D2
330
1F
100
AcDbEntity
  8
1
  6
Continuous
 62
     1
100
AcDbEllipse
 10
406.17935
 20
1608.593868999999
 30
0.0
 11
0.0
 21
-15.0
 31
0.0
210
0.0
220
0.0
230
1.0
 40
0.4067370000000001
 41
0.0
 42
3.141592600199988
  0
ELLIPSE
  5
D3
330
1F
100
AcDbEntity
  8
1
  6
Continuous
 62
     7
100
AcDbEllipse
 10
168.796484
 20
928.593869
 30
0.0
 11
14.90651663117438
 21
-1.672053206247221
 31
0.0
210
0.0
220
0.0
230
0.9999999999999996
 40
0.049569
 41
1.576356349183049
 42
3.141654885619967
  0
ELLIPSE
  5
D4
330
1F
100
AcDbEntity
  8
1
  6
Continuous
 62
     7
100
AcDbEllipse
 10
1312.551719
 20
928.593869
 30
0.0
 11
14.90651663117433
 21
1.672053206247642
 31
0.0
210
0.0
220
0.0
230
1.0
 40
0.049569
 41
1.565236292029823
 42
3.145947711967148
  0
ELLIPSE
  5
D5
330
1F
100
AcDbEntity
  8
1
  6
Continuous
 62
     7
100
AcDbEllipse
 10
1312.551719
 20
928.593869
 30
0.0
 11
14.90651663117433
 21
1.672053206247642
 31
0.0
210
0.0
220
0.0
230
1.0
 40
0.049569
 41
0.0
 42
1.565236322503739
  0
ELLIPSE
  5
D6
330
1F
100
AcDbEntity
  8
1
  6
Continuous
 62
     7
100
AcDbEllipse
 10
1313.108383999999
 20
923.6311380000001
 30
0.0
 11
14.47179955854487
 21
1.623291306128028
 31
0.0
210
0.0
220
0.0
230
1.0
 40
0.049569
 41
1.565236307814759
 42
4.361941015410776
  0
ELLIPSE
  5
D7
330
1F
100
AcDbEntity
  8
1
  6
Continuous
 62
     7
100
AcDbEllipse
 10
1313.108383999999
 20
923.6311380000001
 30
0.0
 11
14.47179955854487
 21
1.623291306128028
 31
0.0
210
0.0
220
0.0
230
1.0
 40
0.049569
 41
5.062810669255951
 42
6.283185307179585
  0
ELLIPSE
  5
D8
330
1F
100
AcDbEntity
  8
1
  6
Continuous
 62
     7
100
AcDbEllipse
 10
1313.108383999999
 20
923.6311380000001
 30
0.0
 11
14.47179955854487
 21
1.623291306128028
 31
0.0
210
0.0
220
0.0
230
1.0
 40
0.049569
 41
0.0
 42
1.565236300985059
  0
ELLIPSE
  5
D9
330
1F
100
AcDbEntity
  8
1
  6
Continuous
 62
     1
100
AcDbEllipse
 10
1175.658854
 20
1608.593868999999
 30
0.0
 11
0.0
 21
-15.0
 31
0.0
210
0.0
220
0.0
230
1.0
 40
0.4067370000000001
 41
3.141101807942951
 42
6.281909135079597
  0
ELLIPSE
  5
DA
330
1F
100
AcDbEntity
  8
1
  6
Continuous
 62
     1
100
AcDbEllipse
 10
1243.664056
 20
1542.73407
 30
0.0
 11
-14.90651663117438
 21
-1.672053206247221
 31
0.0
210
0.0
220
0.0
230
0.9999999999999996
 40
0.049569
 41
3.141627986952736
 42
6.283185307179585
  0
ELLIPSE
  5
DB
330
1F
100
AcDbEntity
  8
1
  6
Continuous
 62
     1
100
AcDbEllipse
 10
1075.168852999999
 20
1608.593868999999
 30
0.0
 11
0.0
 21
-15.0
 31
0.0
210
0.0
220
0.0
230
1.0
 40
0.4067370000000001
 41
3.141592706979527
 42
6.283185307179585
  0
ELLIPSE
  5
DC
330
1F
100
AcDbEntity
  8
1
  6
Continuous
 62
     7
100
AcDbEllipse
 10
167.961486
 20
921.1497730000001
 30
0.0
 11
-4.96883887705813
 21
0.5573510687490393
 31
0.0
210
0.0
220
0.0
230
1.0
 40
0.049569
 41
5.223578239915141
 42
6.51058045104139
  0
ELLIPSE
  5
DD
330
1F
100
AcDbEntity
  8
1
  6
Continuous
 62
     7
100
AcDbEllipse
 10
167.460486
 20
916.683315
 30
0.0
 11
-4.96883887705813
 21
0.5573510687490393
 31
0.0
210
0.0
220
0.0
230
1.0
 40
0.049569
 41
0.2273951438617989
 42
0.5111892522249264
  0
ELLIPSE
  5
DE
330
1F
100
AcDbEntity
  8
1
  6
Continuous
 62
     7
100
AcDbEllipse
 10
167.961486
 20
921.1497730000001
 30
0.0
 11
-4.96883887705813
 21
0.5573510687490393
 31
0.0
210
0.0
220
0.0
230
1.0
 40
0.049569
 41
2.914193236146291
 42
3.368987797451592
  0
ELLIPSE
  5
DF
330
1F
100
AcDbEntity
  8
1
  6
Continuous
 62
     7
100
AcDbEllipse
 10
167.460486
 20
916.683315
 30
0.0
 11
-4.96883887705813
 21
0.5573510687490393
 31
0.0
210
0.0
220
0.0
230
1.0
 40
0.049569
 41
3.368987797451593
 42
3.652781905814738
  0
ELLIPSE
  5
E0
330
1F
100
AcDbEntity
  8
1
  6
Continuous
 62
     7
100
AcDbEllipse
 10
167.961486
 20
921.1497730000001
 30
0.0
 11
-4.96883887705813
 21
0.5573510687490393
 31
0.0
210
0.0
220
0.0
230
1.0
 40
0.049569
 41
3.652781905814707
 42
4.939784129861605
  0
ELLIPSE
  5
E1
330
1F
100
AcDbEntity
  8
1
  6
Continuous
 62
     7
100
AcDbEllipse
 10
167.460486
 20
916.683315
 30
0.0
 11
-4.96883887705813
 21
0.5573510687490393
 31
0.0
210
0.0
220
0.0
230
1.0
 40
0.049569
 41
4.939784129861587
 42
5.223578239915152
  0
ELLIPSE
  5
E2
330
1F
100
AcDbEntity
  8
1
  6
Continuous
 62
     7
100
AcDbEllipse
 10
1313.386717
 20
921.1497730000001
 30
0.0
 11
-4.968838877058126
 21
-0.5573510687490739
 31
0.0
210
0.0
220
0.0
230
0.9999999999999998
 40
0.049569
 41
2.914197507131384
 42
4.201199731178314
  0
ELLIPSE
  5
E3
330
1F
100
AcDbEntity
  8
1
  6
Continuous
 62
     7
100
AcDbEllipse
 10
1313.887717
 20
916.683315
 30
0.0
 11
-4.968838877058126
 21
-0.5573510687490739
 31
0.0
210
0.0
220
0.0
230
0.9999999999999998
 40
0.049569
 41
4.201199731178334
 42
4.484993839541384
  0
ELLIPSE
  5
E4
330
1F
100
AcDbEntity
  8
1
  6
Continuous
 62
     7
100
AcDbEllipse
 10
1313.386717
 20
921.1497730000001
 30
0.0
 11
-4.968838877058126
 21
-0.5573510687490739
 31
0.0
210
0.0
220
0.0
230
0.9999999999999998
 40
0.049569
 41
4.484993839541384
 42
5.771996050667583
  0
ELLIPSE
  5
E5
330
1F
100
AcDbEntity
  8
1
  6
Continuous
 62
     7
100
AcDbEllipse
 10
1313.386717
 20
921.1497730000001
 30
0.0
 11
-4.968838877058126
 21
-0.5573510687490739
 31
0.0
210
0.0
220
0.0
230
0.9999999999999998
 40
0.049569
 41
6.055790160721179
 42
6.510584722026559
  0
ELLIPSE
  5
E6
330
1F
100
AcDbEntity
  8
1
  6
Continuous
 62
     7
100
AcDbEllipse
 10
1313.887717
 20
916.683315
 30
0.0
 11
-4.968838877058126
 21
-0.5573510687490739
 31
0.0
210
0.0
220
0.0
230
0.9999999999999998
 40
0.049569
 41
2.630403397077868
 42
2.914197507131435
  0
ELLIPSE
  5
E7
330
1F
100
AcDbEntity
  8
1
  6
Continuous
 62
     7
100
AcDbEllipse
 10
168.796484
 20
928.593869
 30
0.0
 11
14.90651663117438
 21
-1.672053206247221
 31
0.0
210
0.0
220
0.0
230
0.9999999999999996
 40
0.049569
 41
0.0
 42
1.576356379656965
  0
ELLIPSE
  5
E8
330
1F
100
AcDbEntity
  8
1
  6
Continuous
 62
     7
100
AcDbEllipse
 10
168.2398179999999
 20
923.6311380000001
 30
0.0
 11
14.47179955854491
 21
-1.62329130612762
 31
0.0
210
0.0
220
0.0
230
1.0
 40
0.049569
 41
1.576356390354855
 42
4.361967331699046
  0
ELLIPSE
  5
E9
330
1F
100
AcDbEntity
  8
1
  6
Continuous
 62
     7
100
AcDbEllipse
 10
168.2398179999999
 20
923.6311380000001
 30
0.0
 11
14.47179955854491
 21
-1.62329130612762
 31
0.0
210
0.0
220
0.0
230
1.0
 40
0.049569
 41
5.062836985544603
 42
6.283185307179585
  0
ELLIPSE
  5
EA
330
1F
100
AcDbEntity
  8
1
  6
Continuous
 62
     7
100
AcDbEllipse
 10
168.2398179999999
 20
923.6311380000001
 30
0.0
 11
14.47179955854491
 21
-1.62329130612762
 31
0.0
210
0.0
220
0.0
230
1.0
 40
0.049569
 41
0.0
 42
1.576356383525153
  0
ELLIPSE
  5
EB
330
1F
100
AcDbEntity
  8
1
  6
Continuous
 62
     1
100
AcDbEllipse
 10
2125.831797
 20
115.308607
 30
0.0
 11
0.7481822616370416
 21
-14.98132915676615
 31
0.0
210
0.0
220
0.0
230
1.0
 40
0.111333
 41
0.0
 42
3.141592837399591
  0
ELLIPSE
  5
EC
330
1F
100
AcDbEntity
  8
1
  6
Continuous
 62
     1
100
AcDbEllipse
 10
2191.691596
 20
145.586474
 30
0.0
 11
15.0
 21
0.0
 31
0.0
210
0.0
220
0.0
230
1.0
 40
0.9135450000000002
 41
0.0
 42
3.093388857875333
  0
ELLIPSE
  5
ED
330
1F
100
AcDbEntity
  8
1
  6
Continuous
 62
     1
100
AcDbEllipse
 10
2191.691596
 20
763.6892129999999
 30
0.0
 11
15.0
 21
0.0
 31
0.0
210
0.0
220
0.0
230
1.0
 40
0.9135450000000002
 41
3.188520170444993
 42
6.283185307179585
  0
ELLIPSE
  5
EE
330
1F
100
AcDbEntity
  8
1
  6
Continuous
 62
     1
100
AcDbEllipse
 10
2125.831797
 20
793.96708
 30
0.0
 11
0.7481822616370454
 21
14.98132915676615
 31
0.0
210
0.0
220
0.0
230
1.0
 40
0.111333
 41
3.141592469780244
 42
6.283185307179585
  0
ELLIPSE
  5
EF
330
1F
100
AcDbEntity
  8
1
  6
Continuous
 62
     1
100
AcDbEllipse
 10
2191.691596
 20
190.3275049999999
 30
0.0
 11
15.0
 21
0.0
 31
0.0
210
0.0
220
0.0
230
1.0
 40
0.9135450000000002
 41
0.0
 42
3.141592649166641
  0
ELLIPSE
  5
F0
330
1F
100
AcDbEntity
  8
1
  6
Continuous
 62
     1
100
AcDbEllipse
 10
2191.691596
 20
718.948183
 30
0.0
 11
15.0
 21
0.0
 31
0.0
210
0.0
220
0.0
230
1.0
 40
0.9135450000000002
 41
3.141592658012924
 42
6.283185307179585
  0
ELLIPSE
  5
F1
330
1F
100
AcDbEntity
  8
1
  6
Continuous
 62
     7
100
AcDbEllipse
 10
1511.691596
 20
824.637844
 30
0.0
 11
0.7481822616370454
 21
14.98132915676615
 31
0.0
210
0.0
220
0.0
230
1.0
 40
0.111333
 41
3.141592469780201
 42
6.283185307179585
  0
ELLIPSE
  5
F2
330
1F
100
AcDbEntity
  8
1
  6
Continuous
 62
     7
100
AcDbEllipse
 10
1511.691596
 20
84.63784399999999
 30
0.0
 11
0.7481822616370416
 21
-14.98132915676615
 31
0.0
210
0.0
220
0.0
230
1.0
 40
0.111333
 41
0.0
 42
3.141592837399603
  0
ELLIPSE
  5
F3
330
1F
100
AcDbEntity
  8
1
  6
Continuous
 62
     7
100
AcDbEllipse
 10
1504.247499999999
 20
825.0096089999999
 30
0.0
 11
0.2493940872123485
 21
4.993776385588717
 31
0.0
210
0.0
220
0.0
230
1.0
 40
0.111333
 41
4.490553868885688
 42
5.777556085191628
  0
ELLIPSE
  5
F4
330
1F
100
AcDbEntity
  8
1
  6
Continuous
 62
     7
100
AcDbEllipse
 10
1499.781042
 20
825.2326679999999
 30
0.0
 11
0.2493940872123485
 21
4.993776385588717
 31
0.0
210
0.0
220
0.0
230
1.0
 40
0.111333
 41
5.777556085191633
 42
6.06135019355473
  0
ELLIPSE
  5
F5
330
1F
100
AcDbEntity
  8
1
  6
Continuous
 62
     7
100
AcDbEllipse
 10
1504.247499999999
 20
825.0096089999999
 30
0.0
 11
0.2493940872123485
 21
4.993776385588717
 31
0.0
210
0.0
220
0.0
230
1.0
 40
0.111333
 41
6.06135019355473
 42
6.505023940110017
  0
ELLIPSE
  5
F6
330
1F
100
AcDbEntity
  8
1
  6
Continuous
 62
     7
100
AcDbEllipse
 10
1499.781042
 20
825.2326679999999
 30
0.0
 11
0.2493940872123485
 21
4.993776385588717
 31
0.0
210
0.0
220
0.0
230
1.0
 40
0.111333
 41
2.8783858869832
 42
2.919757539964923
  0
ELLIPSE
  5
F7
330
1F
100
AcDbEntity
  8
1
  6
Continuous
 62
     7
100
AcDbEllipse
 10
1504.247499999999
 20
825.0096089999999
 30
0.0
 11
0.2493940872123485
 21
4.993776385588717
 31
0.0
210
0.0
220
0.0
230
1.0
 40
0.111333
 41
2.919757539964923
 42
4.206759758832138
  0
ELLIPSE
  5
F8
330
1F
100
AcDbEntity
  8
1
  6
Continuous
 62
     7
100
AcDbEllipse
 10
1499.781042
 20
825.2326679999999
 30
0.0
 11
0.2493940872123485
 21
4.993776385588717
 31
0.0
210
0.0
220
0.0
230
1.0
 40
0.111333
 41
4.206759758832138
 42
4.490553868885688
  0
ELLIPSE
  5
F9
330
1F
100
AcDbEntity
  8
1
  6
Continuous
 62
     7
100
AcDbEllipse
 10
1504.247499999999
 20
84.26607800000001
 30
0.0
 11
-0.2493940872124078
 21
4.993776385588715
 31
0.0
210
0.0
220
0.0
230
1.0
 40
0.111333
 41
3.647221878160843
 42
4.934224097028031
  0
ELLIPSE
  5
FA
330
1F
100
AcDbEntity
  8
1
  6
Continuous
 62
     7
100
AcDbEllipse
 10
1499.781042
 20
84.043019
 30
0.0
 11
-0.2493940872124078
 21
4.993776385588715
 31
0.0
210
0.0
220
0.0
230
1.0
 40
0.111333
 41
4.934224097028043
 42
5.218018205391152
  0
ELLIPSE
  5
FB
330
1F
100
AcDbEntity
  8
1
  6
Continuous
 62
     7
100
AcDbEllipse
 10
1504.247499999999
 20
84.26607800000001
 30
0.0
 11
-0.2493940872124078
 21
4.993776385588715
 31
0.0
210
0.0
220
0.0
230
1.0
 40
0.111333
 41
5.218018205391142
 42
6.505020421697088
  0
ELLIPSE
  5
FC
330
1F
100
AcDbEntity
  8
1
  6
Continuous
 62
     7
100
AcDbEllipse
 10
1499.781042
 20
84.043019
 30
0.0
 11
-0.2493940872124078
 21
4.993776385588715
 31
0.0
210
0.0
220
0.0
230
1.0
 40
0.111333
 41
0.2218351145175099
 42
0.2632067673846148
  0
ELLIPSE
  5
FD
330
1F
100
AcDbEntity
  8
1
  6
Continuous
 62
     7
100
AcDbEllipse
 10
1504.247499999999
 20
84.26607800000001
 30
0.0
 11
-0.2493940872124078
 21
4.993776385588715
 31
0.0
210
0.0
220
0.0
230
1.0
 40
0.111333
 41
2.919754021551943
 42
3.363427768107285
  0
ELLIPSE
  5
FE
330
1F
100
AcDbEntity
  8
1
  6
Continuous
 62
     7
100
AcDbEllipse
 10
1499.781042
 20
84.043019
 30
0.0
 11
-0.2493940872124078
 21
4.993776385588715
 31
0.0
210
0.0
220
0.0
230
1.0
 40
0.111333
 41
3.363427768107285
 42
3.647221878160843
  0
ELLIPSE
  5
FF
330
1F
100
AcDbEntity
  8
1
  6
Continuous
 62
     7
100
AcDbEllipse
 10
1511.691596
 20
84.63784399999999
 30
0.0
 11
0.7481822616370416
 21
-14.98132915676615
 31
0.0
210
0.0
220
0.0
230
1.0
 40
0.111333
 41
6.273367904585624
 42
6.283185307179585
  0
ELLIPSE
  5
100
330
1F
100
AcDbEntity
  8
1
  6
Continuous
 62
     7
100
AcDbEllipse
 10
1506.728865
 20
84.39
 30
0.0
 11
0.7263631062555655
 21
-14.54443033484367
 31
0.0
210
0.0
220
0.0
230
0.9999999999999998
 40
0.111333
 41
0.0
 42
4.361905084813833
  0
ELLIPSE
  5
101
330
1F
100
AcDbEntity
  8
1
  6
Continuous
 62
     7
100
AcDbEllipse
 10
1506.728865
 20
84.39
 30
0.0
 11
0.7263631062555655
 21
-14.54443033484367
 31
0.0
210
0.0
220
0.0
230
0.9999999999999998
 40
0.111333
 41
5.062774754313653
 42
6.283185307179585
  0
ELLIPSE
  5
102
330
1F
100
AcDbEntity
  8
1
  6
Continuous
 62
     7
100
AcDbEllipse
 10
1511.691596
 20
824.637844
 30
0.0
 11
-0.748182261637114
 21
-14.98132915676614
 31
0.0
210
0.0
220
0.0
230
0.9999999999999996
 40
0.111333
 41
0.0
 42
3.145126986453818
  0
ELLIPSE
  5
103
330
1F
100
AcDbEntity
  8
1
  6
Continuous
 62
     7
100
AcDbEllipse
 10
1511.691596
 20
824.637844
 30
0.0
 11
-0.748182261637114
 21
-14.98132915676614
 31
0.0
210
0.0
220
0.0
230
0.9999999999999996
 40
0.111333
 41
6.273367904585673
 42
6.283185307179585
  0
ELLIPSE
  5
104
330
1F
100
AcDbEntity
  8
1
  6
Continuous
 62
     7
100
AcDbEllipse
 10
1506.728865
 20
824.8856869999999
 30
0.0
 11
-0.7263631062556361
 21
-14.54443033484368
 31
0.0
210
0.0
220
0.0
230
1.0
 40
0.111333
 41
0.0
 42
4.361905084813836
  0
ELLIPSE
  5
105
330
1F
100
AcDbEntity
  8
1
  6
Continuous
 62
     7
100
AcDbEllipse
 10
1506.728865
 20
824.8856869999999
 30
0.0
 11
-0.7263631062556361
 21
-14.54443033484368
 31
0.0
210
0.0
220
0.0
230
1.0
 40
0.111333
 41
5.06277475431366
 42
6.283185307179585
  0
ELLIPSE
  5
106
330
1F
100
AcDbEntity
  8
1
  6
Continuous
 62
     7
100
AcDbEllipse
 10
168.796484
 20
928.593869
 30
0.0
 11
14.90651663117438
 21
-1.672053206247221
 31
0.0
210
0.0
220
0.0
230
0.9999999999999996
 40
0.049569
 41
3.141654885619967
 42
3.145974507047643
  0
ELLIPSE
  5
107
330
1F
100
AcDbEntity
  8
1
  6
Continuous
 62
     7
100
AcDbEllipse
 10
1312.551719
 20
928.593869
 30
0.0
 11
-14.90651663117438
 21
-1.672053206247221
 31
0.0
210
0.0
220
0.0
230
0.9999999999999996
 40
0.049569
 41
3.141627986952808
 42
4.706828945619643
  0
ELLIPSE
  5
108
330
1F
100
AcDbEntity
  8
1
  6
Continuous
 62
     7
100
AcDbEllipse
 10
1511.691596
 20
84.63784399999999
 30
0.0
 11
0.7481822616370416
 21
-14.98132915676615
 31
0.0
210
0.0
220
0.0
230
1.0
 40
0.111333
 41
3.141592837399603
 42
3.151311810219998
  0
SPLINE
  5
109
330
1F
100
AcDbEntity
  8
1
  6
Continuous
 62
     7
100
AcDbSpline
210
0.0
220
0.0
230
1.0
 70
     8
 71
     3
 72
    28
 73
    24
 74
     0
 42
0.0000000001
 43
0.0000000001
 40
0.0
 40
0.0
 40
0.0
 40
0.0
 40
0.0231279232290489
 40
0.0735465043499244
 40
0.1239541120773844
 40
0.1742986763508024
 40
0.2245421180589365
 40
0.2746541065478449
 40
0.3246133419901169
 40
0.3744076740491582
 40
0.4240332829278046
 40
0.4734932651245344
 40
0.5227959640442014
 40
0.571953313808668
 40
0.6209793693062114
 40
0.6698891085675383
 40
0.7186975293107687
 40
0.7674190216525836
 40
0.8160669789321868
 40
0.864653602070954
 40
0.9131898543455259
 40
0.9616855288377619
 40
1.0
 40
1.0
 40
1.0
 40
1.0
 10
1175.658853589917
 20
1593.593868921773
 30
0.0
 10
1176.244978944416
 20
1593.593864619355
 30
0.0
 10
1178.107358395222
 20
1593.559480918243
 30
0.0
 10
1181.243594182588
 20
1593.317089924265
 30
0.0
 10
1185.041901564563
 20
1592.714070692768
 30
0.0
 10
1188.792894807789
 20
1591.806816020898
 30
0.0
 10
1192.47564474215
 20
1590.600489386989
 30
0.0
 10
1196.070529294382
 20
1589.102041567389
 30
0.0
 10
1199.558652190902
 20
1587.320066590881
 30
0.0
 10
1202.922085456908
 20
1585.264608195193
 30
0.0
 10
1206.143865567658
 20
1582.946989865673
 30
0.0
 10
1209.207998190389
 20
1580.379680716744
 30
0.0
 10
1212.099434273991
 20
1577.576200394177
 30
0.0
 10
1214.804053282191
 20
1574.551055976679
 30
0.0
 10
1217.308660849786
 20
1571.319700336531
 30
0.0
 10
1219.601006982832
 20
1567.898498263739
 30
0.0
 10
1221.66982261544
 20
1564.304697625609
 30
0.0
 10
1223.504875155505
 20
1560.55637132462
 30
0.0
 10
1225.097021130386
 20
1556.67242602912
 30
0.0
 10
1226.438311893434
 20
1552.672301659549
 30
0.0
 10
1227.521918099662
 20
1548.576754106857
 30
0.0
 10
1228.285465436168
 20
1544.695575708247
 30
0.0
 10
1228.632159624716
 20
1542.179075715729
 30
0.0
 10
1228.757539083686
 20
1541.062016470918
 30
0.0
  0
SPLINE
  5
10A
330
1F
100
AcDbEntity
  8
1
  6
Continuous
 62
     7
100
AcDbSpline
210
0.0
220
0.0
230
1.0
 70
     8
 71
     3
 72
    28
 73
    24
 74
     0
 42
0.0000000001
 43
0.0000000001
 40
0.0
 40
0.0
 40
0.0
 40
0.0
 40
0.0234758818646141
 40
0.0718859071949519
 40
0.1203054844623234
 40
0.1687418956402034
 40
0.2172042951219009
 40
0.2657029680521428
 40
0.3142494937157145
 40
0.3628568340898102
 40
0.4115393193789952
 40
0.4603124963564477
 40
0.5091928002462581
 40
0.5581970086316634
 40
0.6073414394647513
 40
0.6566408688923878
 40
0.7061071734089925
 40
0.7557477495426669
 40
0.8055638344354518
 40
0.855548936106352
 40
0.9056876637645473
 40
0.9559552920564915
 40
1.0
 40
1.0
 40
1.0
 40
1.0
 10
252.5906638761463
 20
1541.062016470918
 30
0.0
 10
252.6674009134431
 20
1541.745975064414
 30
0.0
 10
252.9342629208525
 20
1543.833580748464
 30
0.0
 10
253.5455477965756
 20
1547.299553049419
 30
0.0
 10
254.5463238909171
 20
1551.411760710841
 30
0.0
 10
255.8046260129867
 20
1555.432757546405
 30
0.0
 10
257.3135774483665
 20
1559.341953823051
 30
0.0
 10
259.0651485720318
 20
1563.120009444061
 30
0.0
 10
261.0501365217609
 20
1566.748224847564
 30
0.0
 10
263.258282624347
 20
1570.208809017939
 30
0.0
 10
265.6783632941524
 20
1573.484897721733
 30
0.0
 10
268.2982909552829
 20
1576.560614430086
 30
0.0
 10
271.1052078757281
 20
1579.421094290391
 30
0.0
 10
274.0855689263065
 20
1582.05249340304
 30
0.0
 10
277.22520437602
 20
1584.441981232156
 30
0.0
 10
280.5093571853689
 20
1586.577724403147
 30
0.0
 10
283.9226835303661
 20
1588.448871478405
 30
0.0
 10
287.4492372548621
 20
1590.045552982515
 30
0.0
 10
291.0723614857493
 20
1591.358909069554
 30
0.0
 10
294.7748099286936
 20
1592.381169117486
 30
0.0
 10
298.5379647551663
 20
1593.105752504045
 30
0.0
 10
302.1849936928986
 20
1593.509857717856
 30
0.0
 10
304.5721558638246
 20
1593.593820853353
 30
0.0
 10
305.689349369915
 20
1593.593868921773
 30
0.0
  0
SPLINE
  5
10B
330
1F
100
AcDbEntity
  8
1
  6
Continuous
 62
     7
100
AcDbSpline
210
0.0
220
0.0
230
1.0
 70
     8
 71
     3
 72
    33
 73
    29
 74
     0
 42
0.0000000001
 43
0.0000000001
 40
0.0
 40
0.0
 40
0.0
 40
0.0
 40
0.0234838806547647
 40
0.063577446711381
 40
0.1036728681851821
 40
0.1437743516102573
 40
0.1838896723523069
 40
0.2240261231650267
 40
0.2641903129248427
 40
0.3043880007372992
 40
0.3446239716560291
 40
0.3849019580828124
 40
0.4252246080596443
 40
0.4655934987919223
 40
0.5060091910818131
 40
0.546471318120259
 40
0.586978700464464
 40
0.6275294781303101
 40
0.6681212505867591
 40
0.7087512159963719
 40
0.7494163021745682
 40
0.7901132832598595
 40
0.8308388778042163
 40
0.8715898257214343
 40
0.9123629431255841
 40
0.953155155451013
 40
0.9918407907702231
 40
1.0
 40
1.0
 40
1.0
 40
1.0
 10
305.6893493699158
 20
1623.593868921774
 30
0.0
 10
304.7337181693638
 20
1623.593852475329
 30
0.0
 10
302.1488651913277
 20
1623.5461402975
 30
0.0
 10
297.9381225933749
 20
1623.257524140498
 30
0.0
 10
293.0811229591556
 20
1622.615562790956
 30
0.0
 10
288.2678221517942
 20
1621.668793262009
 30
0.0
 10
283.5148595774435
 20
1620.420520722835
 30
0.0
 10
278.8380671952937
 20
1618.87495306086
 30
0.0
 10
274.2531758129346
 20
1617.037231819036
 30
0.0
 10
269.7756242205642
 20
1614.913427354089
 30
0.0
 10
265.42056221106
 20
1612.510539259078
 30
0.0
 10
261.2027955725263
 20
1609.83649426962
 30
0.0
 10
257.1367405011512
 20
1606.900141379291
 30
0.0
 10
253.2363699352565
 20
1603.711242006512
 30
0.0
 10
249.5151577221723
 20
1600.280453912347
 30
0.0
 10
245.9860207283437
 20
1596.619307866182
 30
0.0
 10
242.6612608494373
 20
1592.740176605169
 30
0.0
 10
239.5525084648832
 20
1588.656236164986
 30
0.0
 10
236.6706688662384
 20
1584.381420072185
 30
0.0
 10
234.0258729313889
 20
1579.930367513296
 30
0.0
 10
231.6274328885734
 20
1575.318365930427
 30
0.0
 10
229.4838040173448
 20
1570.561292049321
 30
0.0
 10
227.602551360978
 20
1565.675542493548
 30
0.0
 10
225.9903254709673
 20
1560.67799301501
 30
0.0
 10
224.6528312772359
 20
1555.585845911025
 30
0.0
 10
223.6131994983641
 20
1550.506556312347
 30
0.0
 10
223.0532928929191
 20
1546.764645575722
 30
0.0
 10
222.8169037106964
 20
1544.756246618397
 30
0.0
 10
222.7776306137978
 20
1544.406122883413
 30
0.0
  0
SPLINE
  5
10C
330
1F
100
AcDbEntity
  8
1
  6
Continuous
 62
     7
100
AcDbSpline
210
0.0
220
0.0
230
1.0
 70
     8
 71
     3
 72
    33
 73
    29
 74
     0
 42
0.0000000001
 43
0.0000000001
 40
0.0
 40
0.0
 40
0.0
 40
0.0
 40
0.0230889484931339
 40
0.0639283856573095
 40
0.1047711486256797
 40
0.1456074736658599
 40
0.1864341315737969
 40
0.2272476859295667
 40
0.2680444890623108
 40
0.3088207011088278
 40
0.3495723313309456
 40
0.3902953033703341
 40
0.4309855449025849
 40
0.4716391006001783
 40
0.5122522654902348
 40
0.552821733822322
 40
0.5933447566258762
 40
0.6338192994579731
 40
0.6742441906550017
 40
0.7146192499088855
 40
0.7549453873315151
 40
0.795224664386398
 40
0.8354603100890669
 40
0.8756566885335082
 40
0.9158192168495272
 40
0.9559542358549478
 40
0.9939463444861191
 40
1.0
 40
1.0
 40
1.0
 40
1.0
 10
1258.570572346034
 20
1544.406122883413
 30
0.0
 10
1258.459386413326
 20
1545.397295234661
 30
0.0
 10
1258.109516848855
 20
1548.134014876691
 30
0.0
 10
1257.344546519914
 20
1552.590531484923
 30
0.0
 10
1256.167215911041
 20
1557.736311773244
 30
0.0
 10
1254.710834957317
 20
1562.799748763143
 30
0.0
 10
1252.980420683587
 20
1567.762538728223
 30
0.0
 10
1250.981843013267
 20
1572.607438799436
 30
0.0
 10
1248.721951889846
 20
1577.31745987788
 30
0.0
 10
1246.208544294233
 20
1581.876089579966
 30
0.0
 10
1243.450351082334
 20
1586.267317183684
 30
0.0
 10
1240.457011645822
 20
1590.475713178424
 30
0.0
 10
1237.239043908654
 20
1594.486494789623
 30
0.0
 10
1233.807806759426
 20
1598.285594534227
 30
0.0
 10
1230.175455114453
 20
1601.859725572334
 30
0.0
 10
1226.354887408523
 20
1605.196443589965
 30
0.0
 10
1222.359685941281
 20
1608.284203213467
 30
0.0
 10
1218.204050938175
 20
1611.112407454798
 30
0.0
 10
1213.9027295932
 20
1613.671448784403
 30
0.0
 10
1209.470941973532
 20
1615.952740830476
 30
0.0
 10
1204.924305074467
 20
1617.948740197045
 30
0.0
 10
1200.27875960906
 20
1619.652958473019
 30
0.0
 10
1195.550492131401
 20
1621.059965131265
 30
0.0
 10
1190.755889171913
 20
1622.165382491875
 30
0.0
 10
1185.911394382596
 20
1622.965874686714
 30
0.0
 10
1181.119732789732
 20
1623.450437089274
 30
0.0
 10
1177.696315692924
 20
1623.585345727638
 30
0.0
 10
1175.905076506877
 20
1623.593868696703
 30
0.0
 10
1175.658853589915
 20
1623.593868921774
 30
0.0
  0
SPLINE
  5
10D
330
1F
100
AcDbEntity
  8
1
  6
Continuous
 62
     7
100
AcDbSpline
210
-0.0000000000000004
220
0.0000000000000007
230
1.0
 70
     8
 71
     3
 72
    33
 73
    29
 74
     0
 42
0.0000000001
 43
0.0000000001
 40
0.0
 40
0.0
 40
0.0
 40
0.0
 40
0.0260908567527266
 40
0.0593989781140366
 40
0.0927529008432562
 40
0.12644021296252
 40
0.1607499160145905
 40
0.195973198749328
 40
0.2323915051858698
 40
0.2702483734351303
 40
0.3097004909500656
 40
0.3507536279074942
 40
0.3932131461653521
 40
0.436699535231446
 40
0.4807506865661945
 40
0.5249184190951049
 40
0.5688955751746573
 40
0.6125684504667773
 40
0.6559035107086409
 40
0.6989111085759618
 40
0.7416220050225947
 40
0.7840744012713538
 40
0.8263074945037004
 40
0.8683586292321496
 40
0.9102623022231643
 40
0.9520500755807805
 40
0.9915218193468884
 40
1.0
 40
1.0
 40
1.0
 40
1.0
 10
2206.691596194501
 20
763.6892132567839
 30
0.0000000000000216
 10
2206.691222487074
 20
764.4489430241382
 30
0.0000000000000207
 10
2206.620240228216
 20
766.1697500821069
 30
0.0000000000000187
 10
2206.255927610292
 20
768.839667612844
 30
0.0000000000000155
 10
2205.568056249693
 20
771.6595794988977
 30
0.0000000000000122
 10
2204.59454186926
 20
774.4112828482525
 30
0.0000000000000089
 10
2203.340768567874
 20
777.0910250589046
 30
0.0000000000000057
 10
2201.80698840564
 20
779.6994111181846
 30
0.0000000000000025
 10
2199.988009323843
 20
782.2386130355798
 30
0.0000000000000279
 10
2197.874067228756
 20
784.7104594447677
 30
0.0000000000000248
 10
2195.45393417147
 20
787.1134790114518
 30
0.0000000000000219
 10
2192.720252218694
 20
789.4404559907167
 30
0.000000000000019
 10
2189.675545716377
 20
791.6778234725922
 30
-0.0000000000000123
 10
2186.335659772696
 20
793.80799176831
 30
-0.000000000000015
 10
2182.72896771944
 20
795.8132253965417
 30
-0.0000000000000175
 10
2178.89011023586
 20
797.6800743759863
 30
-0.0000000000000199
 10
2174.851529058758
 20
799.4018644253896
 30
-0.0000000000000222
 10
2170.638578134337
 20
800.9776935740047
 30
-0.0000000000000243
 10
2166.269584119044
 20
802.4097967558313
 30
-0.0000000000000263
 10
2161.759655686588
 20
803.7009434847023
 30
-0.000000000000028
 10
2157.122262809417
 20
804.8536071997784
 30
-0.0000000000000297
 10
2152.370308621961
 20
805.8696681284331
 30
-0.0000000000000312
 10
2147.516736477807
 20
806.750398402173
 30
-0.0000000000000325
 10
2142.57485929926
 20
807.4965635826531
 30
-0.0000000000000337
 10
2137.558386617619
 20
808.1085620216851
 30
-0.0000000000000347
 10
2132.572019169642
 20
808.578042592342
 30
-0.0000000000000355
 10
2128.899201089454
 20
808.8273023750447
 30
-0.0000000000000361
 10
2126.928702998704
 20
808.9309939498924
 30
-0.0000000000000363
 10
2126.579979211529
 20
808.9484091497812
 30
-0.0000000000000363
  0
SPLINE
  5
10E
330
1F
100
AcDbEntity
  8
1
  6
Continuous
 62
     7
100
AcDbSpline
210
0.0000000000000003
220
-0.0000000000000009
230
1.0
 70
     8
 71
     3
 72
    33
 73
    29
 74
     0
 42
0.0000000001
 43
0.0000000001
 40
0.0
 40
0.0
 40
0.0
 40
0.0
 40
0.0220444400767124
 40
0.0637106808264302
 40
0.105440704553184
 40
0.1472662978031432
 40
0.1892168972768467
 40
0.2313248612321392
 40
0.2736260627097547
 40
0.3161602946975122
 40
0.3589712015902242
 40
0.4021051633409986
 40
0.4456080170129633
 40
0.4895175456351799
 40
0.5338481927066084
 40
0.5785629437978511
 40
0.6235283908346321
 40
0.6683276143488009
 40
0.7124449001093332
 40
0.7508550654430772
 40
0.7877379946841363
 40
0.8231891711779139
 40
0.8574060111236923
 40
0.8941001388950986
 40
0.9295779933334856
 40
0.9640731942765325
 40
0.9957358826635541
 40
1.0
 40
1.0
 40
1.0
 40
1.0
 10
2126.579979211529
 20
100.3272779538149
 30
-0.000000000000002
 10
2127.487029335882
 20
100.3725755583499
 30
-0.000000000000002
 10
2130.101751035163
 20
100.521409329433
 30
-0.0000000000000021
 10
2134.402674561361
 20
100.8537731529992
 30
-0.0000000000000022
 10
2139.44642161391
 20
101.380929257541
 30
-0.0000000000000025
 10
2144.421170633452
 20
102.0409551656918
 30
-0.000000000000003
 10
2149.312688002349
 20
102.8337323628838
 30
-0.0000000000000036
 10
2154.107617641058
 20
103.7594034395182
 30
-0.0000000000000044
 10
2158.793162423562
 20
104.8185269317937
 30
-0.0000000000000053
 10
2163.357283524099
 20
106.0122935853061
 30
-0.0000000000000064
 10
2167.788628702607
 20
107.3427798259115
 30
-0.0000000000000077
 10
2172.076385922453
 20
108.8132399751577
 30
-0.0000000000000092
 10
2176.209896716596
 20
110.4283924626588
 30
-0.0000000000000108
 10
2180.177894038482
 20
112.1945910858155
 30
-0.0000000000000127
 10
2183.967157685194
 20
114.119641919591
 30
-0.0000000000000147
 10
2187.560433372621
 20
116.211825424507
 30
-0.0000000000000169
 10
2190.930565285938
 20
118.4753335491391
 30
-0.0000000000000194
 10
2194.04187240709
 20
120.9067725630815
 30
0.0000000000000064
 10
2196.758688891691
 20
123.4039560773352
 30
0.0000000000000036
 10
2199.078566708201
 20
125.9224624796446
 30
0.0000000000000008
 10
2201.018522867388
 20
128.4181110708568
 30
0.0000000000000265
 10
2202.667001246247
 20
130.9725638513218
 30
0.0000000000000236
 10
2204.077178438928
 20
133.6687346563554
 30
0.0000000000000205
 10
2205.219627821244
 20
136.5053961860722
 30
0.0000000000000172
 10
2206.059777855888
 20
139.4703448054831
 30
0.0000000000000138
 10
2206.55376748616
 20
142.3768195090426
 30
0.0000000000000104
 10
2206.68454915858
 20
144.4199602350844
 30
0.0000000000000081
 10
2206.691593611864
 20
145.4626605190778
 30
0.0000000000000068
 10
2206.691596194501
 20
145.586473846812
 30
0.0000000000000067
  0
SPLINE
  5
10F
330
1F
100
AcDbEntity
  8
1
  6
Continuous
 62
     7
100
AcDbSpline
210
0.0000000000000008
220
0.0000000000000031
230
1.0
 70
     8
 71
     3
 72
    29
 73
    25
 74
     0
 42
0.0000000001
 43
0.0000000001
 40
0.0
 40
0.0
 40
0.0
 40
0.0
 40
0.0268019056350353
 40
0.0780000961446405
 40
0.1291028410265063
 40
0.1800586071413556
 40
0.2308255897866296
 40
0.281358626090249
 40
0.3316086146355721
 40
0.3815221256241728
 40
0.4310413382028417
 40
0.4801045305029287
 40
0.528647457869845
 40
0.5766060983473161
 40
0.6239214219284001
 40
0.670547046773703
 40
0.7164608766514369
 40
0.7616820857167142
 40
0.8062952349431824
 40
0.8504842547562686
 40
0.8945817076130031
 40
0.9389530917051468
 40
0.9843518215856985
 40
1.0
 40
1.0
 40
1.0
 40
1.0
 10
2125.083614688255
 20
778.9857508362489
 30
-0.0000000000000013
 10
2125.851698592925
 20
778.9473797699133
 30
-0.0000000000000012
 10
2128.079354088189
 20
778.8205986402062
 30
-0.000000000000001
 10
2131.736509965903
 20
778.537347266916
 30
-0.0000000000000004
 10
2136.004087051091
 20
778.089227115023
 30
0.0000000000000004
 10
2140.166634525743
 20
777.5337310249921
 30
0.0000000000000013
 10
2144.199807287934
 20
776.8760178629447
 30
0.0000000000000023
 10
2148.0805767767
 20
776.1224009934799
 30
0.0000000000000034
 10
2151.786332614567
 20
775.2805362079921
 30
0.0000000000000046
 10
2155.295217886624
 20
774.3595414032679
 30
0.0000000000000059
 10
2158.586283896335
 20
773.3701582621322
 30
0.0000000000000073
 10
2161.639770531033
 20
772.3249353155368
 30
0.0000000000000087
 10
2164.43745757027
 20
771.2384322328583
 30
0.0000000000000101
 10
2166.963132455138
 20
770.1274320857923
 30
0.0000000000000116
 10
2169.203194813944
 20
769.0111406501521
 30
-0.0000000000000438
 10
2171.147420663515
 20
767.9113386647713
 30
-0.0000000000000424
 10
2172.789895028573
 20
766.8524400787123
 30
-0.000000000000041
 10
2174.130100980622
 20
765.8613938428922
 30
0.000000000000017
 10
2175.174116561044
 20
764.9673777963089
 30
0.0000000000000181
 10
2175.935852163449
 20
764.2012028870712
 30
0.0000000000000191
 10
2176.437460061481
 20
763.595458811887
 30
0.0000000000000198
 10
2176.712381490403
 20
763.1815831253402
 30
0.0000000000000203
 10
2176.784432125587
 20
763.0333708045963
 30
0.0000000000000205
 10
2176.791334032207
 20
763.0165000801873
 30
0.0000000000000205
 10
2176.791326189158
 20
763.0165163733515
 30
0.0000000000000205
  0
SPLINE
  5
110
330
1F
100
AcDbEntity
  8
1
  6
Continuous
 62
     7
100
AcDbSpline
210
0.0000000000000007
220
-0.0000000000000052
230
1.0
 70
     8
 71
     3
 72
    29
 73
    25
 74
     0
 42
0.0000000001
 43
0.0000000001
 40
0.0
 40
0.0
 40
0.0
 40
0.0
 40
0.0033161833865499
 40
0.0486555590385383
 40
0.0917062230089948
 40
0.1369890325856635
 40
0.1811863415705011
 40
0.2251741855423821
 40
0.2693384367800023
 40
0.31397871237892
 40
0.3592631295687498
 40
0.4052614097153934
 40
0.4519821611238943
 40
0.4993965506970495
 40
0.5474540686292113
 40
0.5960930992670921
 40
0.645247867584286
 40
0.6948528081162339
 40
0.7448451150672215
 40
0.7951660392394439
 40
0.8457613504382315
 40
0.8965812671675823
 40
0.9475800634881528
 40
1.0
 40
1.0
 40
1.0
 40
1.0
 10
2176.791243593905
 20
146.2590009531163
 30
0.0000000000000041
 10
2176.791245383316
 20
146.2590106193753
 30
0.0000000000000041
 10
2176.790107410737
 20
146.2562768505113
 30
0.0000000000000041
 10
2176.753789601713
 20
146.1704682774519
 30
0.0000000000000042
 10
2176.538197419071
 20
145.8210111512019
 30
0.0000000000000046
 10
2176.109146825282
 20
145.2701100435355
 30
0.0000000000000052
 10
2175.419869655696
 20
144.5419369746375
 30
0.000000000000006
 10
2174.468005285718
 20
143.689800747215
 30
0.0000000000000069
 10
2173.240580877425
 20
142.7422137554594
 30
0.000000000000008
 10
2171.730125699487
 20
141.7251978052071
 30
0.0000000000000091
 10
2169.932710496009
 20
140.6619503640027
 30
0.0000000000000102
 10
2167.848899530816
 20
139.5740786669503
 30
0.0000000000000114
 10
2165.483662742794
 20
138.481705179886
 30
-0.0000000000000444
 10
2162.845877145156
 20
137.4033412083333
 30
-0.0000000000000433
 10
2159.947770023386
 20
136.3558003450801
 30
-0.0000000000000422
 10
2156.804360653011
 20
135.3541678977069
 30
-0.0000000000000412
 10
2153.43293894409
 20
134.4118220676199
 30
-0.0000000000000403
 10
2149.85261217758
 20
133.540495009605
 30
-0.0000000000000395
 10
2146.083900065166
 20
132.750356464932
 30
-0.0000000000000388
 10
2142.148485366701
 20
132.0501160495896
 30
-0.0000000000000382
 10
2138.068703038196
 20
131.4470982561086
 30
-0.0000000000000378
 10
2133.868298742676
 20
130.9474167949401
 30
-0.0000000000000375
 10
2129.532545464959
 20
130.5524516988463
 30
-0.0000000000000373
 10
2126.587681580447
 20
130.3651423988263
 30
-0.0000000000000372
 10
2125.083614688255
 20
130.2899362673472
 30
-0.0000000000000372
  0
ENDSEC
  0
SECTION
  2
OBJECTS
  0
DICTIONARY
  5
C
330
0
100
AcDbDictionary
281
     1
  3
ACAD_GROUP
350
D
  3
ACAD_LAYOUT
350
1A
  3
ACAD_MLEADERSTYLE
350
12A
  3
ACAD_MLINESTYLE
350
17
  3
ACAD_PLOTSETTINGS
350
19
  3
ACAD_PLOTSTYLENAME
350
E
  3
ACAD_TABLESTYLE
350
129
  3
ACAD_VISUALSTYLE
350
2A
  0
DICTIONARY
  5
D
102
{ACAD_REACTORS
330
C
102
}
330
C
100
AcDbDictionary
281
     1
  0
DICTIONARY
  5
1A
102
{ACAD_REACTORS
330
C
102
}
330
C
100
AcDbDictionary
281
     1
  3
Layout1
350
1E
  3
Layout2
350
26
  3
Model
350
22
  0
DICTIONARY
  5
12A
102
{ACAD_REACTORS
330
C
102
}
330
C
100
AcDbDictionary
281
     1
  0
DICTIONARY
  5
17
102
{ACAD_REACTORS
330
C
102
}
330
C
100
AcDbDictionary
281
     1
  3
Standard
350
18
  0
DICTIONARY
  5
19
102
{ACAD_REACTORS
330
C
102
}
330
C
100
AcDbDictionary
281
     1
  0
ACDBDICTIONARYWDFLT
  5
E
102
{ACAD_REACTORS
330
C
102
}
330
C
100
AcDbDictionary
281
     1
  3
Normal
350
F
100
AcDbDictionaryWithDefault
340
F
  0
DICTIONARY
  5
129
102
{ACAD_REACTORS
330
C
102
}
330
C
100
AcDbDictionary
281
     1
  0
DICTIONARY
  5
2A
102
{ACAD_REACTORS
330
C
102
}
330
C
100
AcDbDictionary
281
     1
  3
2dWireframe
350
2F
  3
3D Hidden
350
31
  3
3dWireframe
350
30
  3
Basic
350
32
  3
Brighten
350
36
  3
ColorChange
350
3A
  3
Conceptual
350
34
  3
Dim
350
35
  3
Facepattern
350
39
  3
Flat
350
2B
  3
FlatWithEdges
350
2C
  3
Gouraud
350
2D
  3
GouraudWithEdges
350
2E
  3
Linepattern
350
38
  3
Realistic
350
33
  3
Thicken
350
37
  0
LAYOUT
  5
1E
102
{ACAD_REACTORS
330
1A
102
}
330
1A
100
AcDbPlotSettings
  1

  2
none_device
  4

  6

 40
0.0
 41
0.0
 42
0.0
 43
0.0
 44
0.0
 45
0.0
 46
0.0
 47
0.0
 48
0.0
 49
0.0
140
0.0
141
0.0
142
1.0
143
1.0
 70
   688
 72
     0
 73
     0
 74
     5
  7

 75
    16
147
1.0
148
0.0
149
0.0
100
AcDbLayout
  1
Layout1
 70
     1
 71
     1
 10
-0.5
 20
-0.5
 11
5.0
 21
5.0
 12
0.0
 22
0.0
 32
0.0
 14
-0.5
 24
-0.5
 34
-0.5
 15
5.0
 25
5.0
 35
5.0
146
0.0
 13
0.0
 23
0.0
 33
0.0
 16
1.0
 26
0.0
 36
0.0
 17
0.0
 27
1.0
 37
0.0
 76
     0
330
1B
  0
LAYOUT
  5
26
102
{ACAD_REACTORS
330
1A
102
}
330
1A
100
AcDbPlotSettings
  1

  2
none_device
  4

  6

 40
0.0
 41
0.0
 42
0.0
 43
0.0
 44
0.0
 45
0.0
 46
0.0
 47
0.0
 48
0.0
 49
0.0
140
0.0
141
0.0
142
1.0
143
1.0
 70
   688
 72
     0
 73
     0
 74
     5
  7

 75
    16
147
1.0
148
0.0
149
0.0
100
AcDbLayout
  1
Layout2
 70
     1
 71
     2
 10
0.0
 20
0.0
 11
0.0
 21
0.0
 12
0.0
 22
0.0
 32
0.0
 14
0.0
 24
0.0
 34
0.0
 15
0.0
 25
0.0
 35
0.0
146
0.0
 13
0.0
 23
0.0
 33
0.0
 16
1.0
 26
0.0
 36
0.0
 17
0.0
 27
1.0
 37
0.0
 76
     0
330
23
  0
LAYOUT
  5
22
102
{ACAD_REACTORS
330
1A
102
}
330
1A
100
AcDbPlotSettings
  1

  2
none_device
  4

  6

 40
0.0
 41
0.0
 42
0.0
 43
0.0
 44
0.0
 45
0.0
 46
0.0
 47
0.0
 48
0.0
 49
0.0
140
0.0
141
0.0
142
1.0
143
1.0
 70
  1712
 72
     0
 73
     0
 74
     0
  7

 75
     0
147
1.0
148
0.0
149
0.0
100
AcDbLayout
  1
Model
 70
     1
 71
     0
 10
-0.5
 20
-0.5
 11
5.0
 21
5.0
 12
0.0
 22
0.0
 32
0.0
 14
-0.5
 24
-0.5
 34
-0.5
 15
5.0
 25
5.0
 35
5.0
146
0.0
 13
0.0
 23
0.0
 33
0.0
 16
1.0
 26
0.0
 36
0.0
 17
0.0
 27
1.0
 37
0.0
 76
     0
330
1F
331
29
  0
MLINESTYLE
  5
18
102
{ACAD_REACTORS
330
17
102
}
330
17
100
AcDbMlineStyle
  2
STANDARD
 70
     0
  3

 62
   256
 51
90.0
 52
90.0
 71
     2
 49
0.5
 62
   256
  6
BYLAYER
 49
-0.5
 62
   256
  6
BYLAYER
  0
ACDBPLACEHOLDER
  5
F
102
{ACAD_REACTORS
330
E
102
}
330
E
  0
VISUALSTYLE
  5
2F
102
{ACAD_REACTORS
330
2A
102
}
330
2A
100
AcDbVisualStyle
  2
2dWireframe
 70
     4
 71
     0
 72
     2
 73
     0
 90
        0
 40
-0.6
 41
-30.0
 62
     5
 63
     7
 74
     1
 91
        4
 64
     7
 65
   257
 75
     1
175
     1
 42
1.0
 92
        0
 66
   257
 43
1.0
 76
     1
 77
     6
 78
     2
 67
     7
 79
     5
170
     0
171
     0
290
     0
174
     0
 93
        1
 44
0.0
173
     0
291
     0
 45
0.0
1001
ACAD
1000
AcDbSavedByObjectVersion
1070
     0
  0
VISUALSTYLE
  5
31
102
{ACAD_REACTORS
330
2A
102
}
330
2A
100
AcDbVisualStyle
  2
3D Hidden
 70
     6
 71
     1
 72
     2
 73
     2
 90
        0
 40
-0.6
 41
-30.0
 62
     5
 63
     7
 74
     2
 91
        2
 64
     7
 65
   257
 75
     2
175
     1
 42
40.0
 92
        0
 66
   257
 43
1.0
 76
     1
 77
     6
 78
     2
 67
     7
 79
     3
170
     0
171
     0
290
     0
174
     0
 93
        1
 44
0.0
173
     0
291
     0
 45
0.0
1001
ACAD
1000
AcDbSavedByObjectVersion
1070
     0
  0
VISUALSTYLE
  5
30
102
{ACAD_REACTORS
330
2A
102
}
330
2A
100
AcDbVisualStyle
  2
3dWireframe
 70
     5
 71
     0
 72
     2
 73
     0
 90
        0
 40
-0.6
 41
-30.0
 62
     5
 63
     7
 74
     1
 91
        4
 64
     7
 65
   257
 75
     1
175
     1
 42
1.0
 92
        0
 66
   257
 43
1.0
 76
     1
 77
     6
 78
     2
 67
     7
 79
     5
170
     0
171
     0
290
     0
174
     0
 93
        1
 44
0.0
173
     0
291
     0
 45
0.0
1001
ACAD
1000
AcDbSavedByObjectVersion
1070
     0
  0
VISUALSTYLE
  5
32
102
{ACAD_REACTORS
330
2A
102
}
330
2A
100
AcDbVisualStyle
  2
Basic
 70
     7
 71
     1
 72
     0
 73
     1
 90
        0
 40
-0.6
 41
-30.0
 62
     5
 63
     7
 74
     0
 91
        4
 64
     7
 65
   257
 75
     1
175
     1
 42
1.0
 92
        8
 66
     7
 43
1.0
 76
     1
 77
     6
 78
     2
 67
     7
 79
     5
170
     0
171
     0
290
     0
174
     0
 93
        1
 44
0.0
173
     0
291
     1
 45
0.0
1001
ACAD
1000
AcDbSavedByObjectVersion
1070
     0
  0
VISUALSTYLE
  5
36
102
{ACAD_REACTORS
330
2A
102
}
330
2A
100
AcDbVisualStyle
  2
Brighten
 70
    12
 71
     2
 72
     2
 73
     0
 90
        0
 40
-0.6
 41
-30.0
 62
     5
 63
     7
 74
     1
 91
        4
 64
     7
 65
   257
 75
     1
175
     1
 42
1.0
 92
        8
 66
     7
 43
1.0
 76
     1
 77
     6
 78
     2
 67
     7
 79
     5
170
     0
171
     0
290
     0
174
     0
 93
        1
 44
50.0
173
     0
291
     1
 45
0.0
1001
ACAD
1000
AcDbSavedByObjectVersion
1070
     0
  0
VISUALSTYLE
  5
3A
102
{ACAD_REACTORS
330
2A
102
}
330
2A
100
AcDbVisualStyle
  2
ColorChange
 70
    16
 71
     2
 72
     2
 73
     3
 90
        0
 40
-0.6
 41
-30.0
 62
     5
 63
     8
 74
     1
 91
        4
 64
     7
 65
   257
 75
     1
175
     1
 42
1.0
 92
        8
 66
     8
 43
1.0
 76
     1
 77
     6
 78
     2
 67
     7
 79
     5
170
     0
171
     0
290
     0
174
     0
 93
        1
 44
0.0
173
     0
291
     1
 45
0.0
1001
ACAD
1000
AcDbSavedByObjectVersion
1070
     0
  0
VISUALSTYLE
  5
34
102
{ACAD_REACTORS
330
2A
102
}
330
2A
100
AcDbVisualStyle
  2
Conceptual
 70
     9
 71
     3
 72
     2
 73
     0
 90
        0
 40
-0.6
 41
-30.0
 62
     5
 63
     7
 74
     2
 91
        2
 64
     7
 65
   257
 75
     1
175
     1
 42
40.0
 92
        8
 66
     7
 43
1.0
 76
     1
 77
     6
 78
     2
 67
     7
 79
     3
170
     0
171
     0
290
     0
174
     0
 93
        1
 44
0.0
173
     0
291
     0
 45
0.0
1001
ACAD
1000
AcDbSavedByObjectVersion
1070
     0
  0
VISUALSTYLE
  5
35
102
{ACAD_REACTORS
330
2A
102
}
330
2A
100
AcDbVisualStyle
  2
Dim
 70
    11
 71
     2
 72
     2
 73
     0
 90
        0
 40
-0.6
 41
-30.0
 62
     5
 63
     7
 74
     1
 91
        4
 64
     7
 65
   257
 75
     1
175
     1
 42
1.0
 92
        8
 66
     7
 43
1.0
 76
     1
 77
     6
 78
     2
 67
     7
 79
     5
170
     0
171
     0
290
     0
174
     0
 93
        1
 44
-50.0
173
     0
291
     1
 45
0.0
1001
ACAD
1000
AcDbSavedByObjectVersion
1070
     0
  0
VISUALSTYLE
  5
39
102
{ACAD_REACTORS
330
2A
102
}
330
2A
100
AcDbVisualStyle
  2
Facepattern
 70
    15
 71
     2
 72
     2
 73
     0
 90
        0
 40
-0.6
 41
-30.0
 62
     5
 63
     7
 74
     1
 91
        4
 64
     7
 65
   257
 75
     1
175
     1
 42
1.0
 92
        8
 66
     7
 43
1.0
 76
     1
 77
     6
 78
     2
 67
     7
 79
     5
170
     0
171
     0
290
     0
174
     0
 93
        1
 44
0.0
173
     0
291
     1
 45
0.0
1001
ACAD
1000
AcDbSavedByObjectVersion
1070
     0
  0
VISUALSTYLE
  5
2B
102
{ACAD_REACTORS
330
2A
102
}
330
2A
100
AcDbVisualStyle
  2
Flat
 70
     0
 71
     2
 72
     1
 73
     1
 90
        2
 40
-0.6
 41
30.0
 62
     5
 63
     7
 74
     0
 91
        4
 64
     7
 65
   257
 75
     1
175
     1
 42
1.0
 92
        8
 66
     7
 43
1.0
 76
     1
 77
     6
 78
     2
 67
     7
 79
     5
170
     0
171
     0
290
     0
174
     0
 93
       13
 44
0.0
173
     0
291
     1
 45
0.0
1001
ACAD
1000
AcDbSavedByObjectVersion
1070
     0
  0
VISUALSTYLE
  5
2C
102
{ACAD_REACTORS
330
2A
102
}
330
2A
100
AcDbVisualStyle
  2
FlatWithEdges
 70
     1
 71
     2
 72
     1
 73
     1
 90
        2
 40
-0.6
 41
30.0
 62
     5
 63
     7
 74
     1
 91
        4
 64
     7
 65
   257
 75
     1
175
     1
 42
1.0
 92
        0
 66
   257
 43
1.0
 76
     1
 77
     6
 78
     2
 67
     7
 79
     5
170
     0
171
     0
290
     0
174
     0
 93
       13
 44
0.0
173
     0
291
     1
 45
0.0
1001
ACAD
1000
AcDbSavedByObjectVersion
1070
     0
  0
VISUALSTYLE
  5
2D
102
{ACAD_REACTORS
330
2A
102
}
330
2A
100
AcDbVisualStyle
  2
Gouraud
 70
     2
 71
     2
 72
     2
 73
     1
 90
        2
 40
-0.6
 41
30.0
 62
     5
 63
     7
 74
     0
 91
        4
 64
     7
 65
   257
 75
     1
175
     1
 42
1.0
 92
        0
 66
     7
 43
1.0
 76
     1
 77
     6
 78
     2
 67
     7
 79
     5
170
     0
171
     0
290
     0
174
     0
 93
       13
 44
0.0
173
     0
291
     1
 45
0.0
1001
ACAD
1000
AcDbSavedByObjectVersion
1070
     0
  0
VISUALSTYLE
  5
2E
102
{ACAD_REACTORS
330
2A
102
}
330
2A
100
AcDbVisualStyle
  2
GouraudWithEdges
 70
     3
 71
     2
 72
     2
 73
     1
 90
        2
 40
-0.6
 41
30.0
 62
     5
 63
     7
 74
     1
 91
        4
 64
     7
 65
   257
 75
     1
175
     1
 42
1.0
 92
        0
 66
   257
 43
1.0
 76
     1
 77
     6
 78
     2
 67
     7
 79
     5
170
     0
171
     0
290
     0
174
     0
 93
       13
 44
0.0
173
     0
291
     1
 45
0.0
1001
ACAD
1000
AcDbSavedByObjectVersion
1070
     0
  0
VISUALSTYLE
  5
38
102
{ACAD_REACTORS
330
2A
102
}
330
2A
100
AcDbVisualStyle
  2
Linepattern
 70
    14
 71
     2
 72
     2
 73
     0
 90
        0
 40
-0.6
 41
-30.0
 62
     5
 63
     7
 74
     1
 91
        4
 64
     7
 65
   257
 75
     7
175
     7
 42
1.0
 92
        8
 66
     7
 43
1.0
 76
     1
 77
     6
 78
     2
 67
     7
 79
     5
170
     0
171
     0
290
     0
174
     0
 93
        1
 44
0.0
173
     0
291
     1
 45
0.0
1001
ACAD
1000
AcDbSavedByObjectVersion
1070
     0
  0
VISUALSTYLE
  5
33
102
{ACAD_REACTORS
330
2A
102
}
330
2A
100
AcDbVisualStyle
  2
Realistic
 70
     8
 71
     2
 72
     2
 73
     0
 90
        0
 40
-0.6
 41
-30.0
 62
     5
 63
     7
 74
     1
 91
        0
 64
     7
 65
   257
 75
     1
175
     1
 42
1.0
 92
        8
 66
     8
 43
1.0
 76
     1
 77
     6
 78
     2
 67
     7
 79
     5
170
     0
171
     0
290
     0
174
     0
 93
       13
 44
0.0
173
     0
291
     0
 45
0.0
1001
ACAD
1000
AcDbSavedByObjectVersion
1070
     0
  0
VISUALSTYLE
  5
37
102
{ACAD_REACTORS
330
2A
102
}
330
2A
100
AcDbVisualStyle
  2
Thicken
 70
    13
 71
     2
 72
     2
 73
     0
 90
        0
 40
-0.6
 41
-30.0
 62
     5
 63
     7
 74
     1
 91
        4
 64
     7
 65
   257
 75
     1
175
     1
 42
1.0
 92
       12
 66
     7
 43
1.0
 76
     1
 77
     6
 78
     2
 67
     7
 79
     5
170
     0
171
     0
290
     0
174
     0
 93
        1
 44
0.0
173
     0
291
     1
 45
0.0
1001
ACAD
1000
AcDbSavedByObjectVersion
1070
     0
  0
ENDSEC
  0
EOF
